Oops, an error
Loading. Please wait.

So Cold I Could See Your Breath Bass Tab

308 views 1 this week
1 commentread comment
1 2 3 4 5
3 more votes to show rating
add to favorites
launch autoscroll
font size
0
reset
guitar tuner
Autoscroll
slow
fast
+/-
esc
set tempo
stop
Help us to improve Ultimate-Guitar.com Take our survey!
×
Author
Difficulty
novice
Underoath – It’s Dangerous Business Walking Out Your Front Door

First tab, rate it. In the second verse before the chorus there might be some muted
notes added instead of letting the note ring, hard to tell with the bass drum.


INTRO (0:02)
G|--------------------------------------------------||
D|--------------------------------------------------||
A|--------------------------------------------------||
D|-7-77----7-77----3-33---0-00-0-00--5-55-5-55------||

VERSE (0:16)             Time is running...
G|---------------------------------------------||
D|---------------------------------------------||   x2
A|---------------------------------------------||
D|-7~--------9/5~--------10/3~--------3/5~-----||

BREAK (0:42)

VERSE (1:13)              Around this turn...
G|---------------------------------------------||
D|---------------------------------------------||   x2
A|---------------------------------------------||
D|-7~--------9/5~--------10/3~--------3/5~-----||

CHORUS (1:41)              My knuckles have... 
G|----------------------------------------||
D|----------------------------------------||   x4
A|----------------------------------------||
D|-7777777777777777-3333333355555555------||

BRIDGE (2:09)              I will now bring...
G|---------------------------------------------||
D|---------------------------------------------||
A|---------------------------------------------||
D|-2-22-2-22--3-33-3-33--7-77-7-77--5-55-5-55--||

G|---------------------------------------------||
D|---------------------------------------------||
A|---------------------------------------------||
D|-2-22-2-22--3-33-3-33—7-7-7h9-7--5-55-5-55---||

DRUM SOLO AND INTERLUDE

OUTRO (2:52)               Glass shatters...
G|--------------------------------------------------||
D|--------------------------------------------------|| x2
A|--------------------------------------------------||
D|-7-77----7-77----3-33----0-00-0-00--5-55-5-55-----||

CHORUS (3:20)
G|-------------------------------------||
D|-------------------------------------|| x4
A|-------------------------------------||
D|-7777777777777777-3333333355555555---||



G|--------------------||
D|--------------------||
A|--------------------||
D|-7~-----------------||

Greatest band on the planet. Rate this tab, as I said before, since it’s my first tab.
Suggest correction
Give kudos to tab author, rate the tab!
1 2 3 4 5
comments
print report bad tab
1 comment total.
0 reply
guitar-pro_92 108 Nov 23, 2006 04:45 PM

This Is an Underoath Song so why is it in the Emery Tab section just saying not being rude or any thing I noticed you put underoath on it and everything but somehow it got into the emery tabs. Don't know just saying. Peace Out

guest
You may want to rate the tab now too:
select rating
Wanna post a correction for this tab? Suggest correction