Oops, an error
Loading. Please wait.

Studying Politics Tab

version 2
version 2

Whole song

Interactive

1,219 views 1 this week
no commentswrite comment
1 2 3 4 5
worth learning
x 1
add to favorites
launch autoscroll
font size
0
reset
how to read this tab
guitar tuner
Tab Pro tools
  • play this tab
  • loop segment
  • change instrument
  • show fretboard
  • metronome
Autoscroll
slow
fast
+/-
esc
set tempo
stop
Difficulty
Tuning
intermediate
D A D G B E
-------------------------------------------------------------------------------
                            Studying Politics - Emery
-------------------------------------------------------------------------------
Tabbed by: Jake Boardman
Email: Jake3493@hotmail.com

This is the acoustic version of "studying Politics" off Emery's The Question Special 
and please check out my band myspace.com/Sworntestimony
thanks, Enjoy

Tuning: Drop D

  Verse  0:00-0:32
e|----------------------------------------------------------------------|
B|----------------------------------------------------------------------|
G|-8--------------------------------------------------------------------|
D|-x--Repeat a lot------------------------------------------------------|
A|-6--------------------------------------------------------------------|
D|----------------------------------------------------------------------|

  Chorus  0:33-0:59
e|----------------------------------------------------------------------|
B|----------------------------------------------------------------------|
G|-8-8-8-8--11-11-11-11--13-13-13-13--16-16-16-16-----------------------|
D|-x-x-x-x--x--x--x--x---x--x--x--x---x--x--x--x--repeat through Chorus-|
A|-6-6-6-6--9--9--9--9---11-11-11-11--14-14-14-14-----------------------|
D|----------------------------------------------------------------------|

  Post Chorus 1:00-1:13   (the Uh-oh Part)
e|----------------------------------------------------------------------|
B|----------------------------------------------------------------------|
G|----------------------------------------------------------------------|
D|-7-7-x-x-x-x-------7-7-x-x--------7-x-x-x-x--------7-7-7-7-7-7--------|
A|-7-7-x-x-x-x-3time-7-7-x-x-2times-7-x-x-x-x-3times-7-7-7-7-7-7--------|
D|-7-7-x-x-x-x-------7-7-x-x--------7-x-x-x-x--------7-7-7-7-7-7--------|

  First half of Verse 1:14-1:28
e|----------------------------------------------------------------------|
B|----------------------------------------------------------------------|
G|----------------------------------------------------------------------|
D|-6-6----7-7----6-6----7-7--7-7--6-6----7-7----6-6----7-7--7-7---------|
A|-6-6----7-7----6-6----7-7--7-7--6-6----7-7----6-6----7-7--7-7---------|
D|-6-6----7-7----6-6----7-7--7-7--6-6----7-7----6-6----7-7--7-7---------|

  Second half of Verse 1:29-1:37
e|----------------------------------------------------------------------|
B|---------16-------------17-15-15-15-13-15--15--15--15-----------------|
G|------15----Repeat-4X--------------------19--19--19-------------------|
D|---13-----------------------------------------------------------------|
A|----------------------------------------------------------------------|
D|----------------------------------------------------------------------|

  Chorus 1:38-2:05
e|----------------------------------------------------------------------|
B|----------------------------------------------------------------------|
G|-8-8-8-8--11-11-11-11--13-13-13-13--16-16-16-16-----------------------|
D|-x-x-x-x--x--x--x--x---x--x--x--x---x--x--x--x--repeat through Chorus-|
A|-6-6-6-6--9--9--9--9---11-11-11-11--14-14-14-14-----------------------|
D|----------------------------------------------------------------------|

 Bridge 2:06-2:33
e|-4-4-4-4-------------2-2-2-2------------------------------------------|
B|-4-4-4-4---4-4-4-4---2-2-2-2------------------------------------------|
G|-4-4-4-4---4-4-4-4---2-2-2-2--Repeat throughout-----------------------|
D|-6-6-6-6---4-4-4-4---4-4-4-4------------------------------------------|
A|-6-6-6-6---2-2-2-2---4-4-4-4------------------------------------------|
D|-4-4-4-4-------------2-2-2-2------------------------------------------|

  Chorus (Part 1) 2:34-2:48
E|----------------------------------------------------------------------|
B|-4------4-----4-------------------------------------------------------|
G|-----5------5-----5---------------------------------------------------|
D|-6--6---6--6--6--6----------------------------------------------------|
A|---7------7-----7-----------------------------------------------------|
D|----------------------------------------------------------------------|

  Chorus (Part 2) 2:48-3:15
e|----------------------------------------------------------------------|
B|----------------------------------------------------------------------|
G|-8--------------------------------------------------------------------|
D|-x--Repeat throughout-------------------------------------------------|
A|-6--------------------------------------------------------------------|
D|----------------------------------------------------------------------|

  Outro 3:16-3:37
e|----------------------------------------------------------------------|
B|----------------------------------------------------------------------|
G|----------------------------------------------------------------------|
D|-7-7-x-x-x-x--7-7-x-x-x-x--7-7-x-x-x-x--------------------------------|
A|-7-7-x-x-x-x--7-7-x-x-x-x--7-7-x-x-x-x--------------------------------|
D|-7-7-x-x-x-x--7-7-x-x-x-x--7-7-x-x-x-x--------------------------------|

  Outro Continued...
e|-----------------------------------------------------x----------------|
B|-----------------------------------------------------x----------------|
G|-----------------------------------------------------x----------------|
D|--7-7-x-x-7-7-x-x-7-7-x-x-x-x---7-7-7~~--------------x----------------|
A|--7-7-x-x-7-7-x-x-7-7-x-x-x-x---7-7-7~~-Let Ring-----x----------------|
D|--7-7-x-x-7-7-x-x-7-7-x-x-x-x---7-7-7~~--------------x----------------|

| /  slide up
| \  slide down
| h  hammer-on
| p  pull-off
| ~  Let Ring
| +  harmonic
| x  Mute note
===============================================================================
comments
We did not receive enough feedback on this tab! Please rate:
print report bad tab
1 2 3 4 5
I want to post or [tab]
guest
You may want to rate the tab now too:
select rating
Please do not post tabs as comments. Select "correction" instead!