Oops, an error
Loading. Please wait.

Studying Politics Tab

version 3
version 3

Whole song

Interactive

709 views 1 this week
1 commentread comment
1 2 3 4 5
please rate
add to favorites
launch autoscroll
font size
0
reset
how to read this tab
guitar tuner
Tab Pro tools
  • play this tab
  • loop segment
  • change instrument
  • show fretboard
  • metronome
×
Best way to learn
"Studying Politics"
Autoscroll
slow
fast
+/-
esc
set tempo
stop
Contributor
----------------------------------------------------------------------------
                             Studying Politics - Emery
----------------------------------------------------------------------------
Tabbed by: Factor13x
Email: iwildcatbaseball@aol.com

Tuning: Drop C

Verse 1:

Guitar 1 (Phaser effect) [actually played on keys but sounds good with this]
 just play continuously until the chorus with light strumming and volume turned down slightly
D|------|
A|------|
F|------|
C|--11*-|
G|--11*-|
C|--11*-|

Guitar 2 (Distorted)
       wait for about 10 seconds
D|------------------------------------|
A|------------------------------------|
F|--------------------------11-11-11--|
C|--77--44--99--99--77--44---x--x--x--|
G|--77--44--99--99--77--44---9--9--9--|
C|--77--44--99--99--77--44------------|

Chorus: x2

Guitars 1 & 2 (Distorted)
                                x2   (11's not 1's)
D|---------------------------------|----------------------------------------|
A|---------------------------------|----------------------------------------|
F|-------------------------11-11-11|-----------------------------11-11-11---|
C|--11111111111111111111---x--x--x-|-2222222222-2-2-2222222222---x--x--x----|
G|--11111111111111111111---9--9--9-|-2222222222-2-2-2222222222---9--9--9----|
C|--11111111111111111111-----------|-2222222222-2-2-2222222222--------------|

Post-Chorus:

Guitars 1 & 2 (distorted)
D|------------------------------------------------|
A|------------------------------------------------|
F|------------------------------------------------|
C|--77xxxxxx-44xxxxxx-1111xxxxxx--1111xx--1111xx--|     (11's not 1's)
G|--77xxxxxx-44xxxxxx-1111xxxxxx--1111xx--1111xx--|
C|--77xxxxxx-44xxxxxx-1111xxxxxx--1111xx--1111xx--|

D|----------------------------------------------------|
A|----------------------------------------------------|
F|----------------------------------------------------|
C|--77xxxxxx-44xxxxxx-1111xxxxxx--11111111--11111111--|    (11's not 1's)
G|--77xxxxxx-44xxxxxx-1111xxxxxx--11111111--11111111--|
C|--77xxxxxx-44xxxxxx-1111xxxxxx--11111111--11111111--|

Verse 2

Guitar 1 (Distorted) [what sounds like Guitar 2 is actually the keys]
D|------------------------------------------------------------------------|
A|------------------------------------------------------------------------|
F|------------------------------------------------------------------------|
C|--77---44---1111---111111-111111--|--77777777--44444444-1111111111111111|
G|--77---44---1111---111111-111111--|--77777777--44444444-1111111111111111|
C|--77---44---1111---111111-111111--|--77777777--44444444-1111111111111111|
     (palm mute entire line)

D|------------------------------|
A|------------------------------|
F|--------------------11-11-11--|
C|--77777777--444444---x--x--x--|
G|--77777777--444444---9--9--9--|
C|--77777777--444444------------|
     (palm mute G and F# but not D)

Chorus: x2

Bridge

Guitar 1 & 2 (Distorted)
                        x4
D|--------------------------------------------------------------------------|
A|--------------------------------------------------------------------------|
F|--18-18-18-18---13-13-13-13----13-13/16-16--16-16-16-16--16-16-16-16-16-16|
C|---x--x--x--x----x--x--x--x-----x--x/-x--x---x--x--x--x---x--x--x--x--x--x|
G|--16-16-16-16---11-11-11-11----11-11/14-14--14-14-14-14--14-14-14-14-14-14|
C|--------------------------------------------------------------------------|

Guitar 1 (Clean)
               x8
D|---------------|
A|---------------|
F|--------16-----|
C|-----16----16--|
G|--14-----------|
C|---------------|

Outro chorus:

Guitar 1 (Distorted)
                 x4
D|----------------------------------------------------|
A|----------------------------------------------------|
F|----------------------------------------------------|
C|--111111111111111111111111111111--7777777777777777--|   (11's not 1's)
G|--111111111111111111111111111111--7777777777777777--|
C|--111111111111111111111111111111--7777777777777777--|

Guitar 2 (Clean)
              x16
D|------------------|
A|------------------|
F|--18--16--18--16--|
C|------------------|
G|------------------|
C|------------------|

Outro

Guitar 1 & 2 (Distorted)
                      (11's not 1's)
D|------------------------------------------------|-----------------------|
A|------------------------------------------------|-----------------------|
F|------------------------------------------------|-----------------------|
C|--77xxxxxx-44xxxxxx-1111xxxxxx--1111xx--1111xx--|--77xxxxxx--4--4--4----|
G|--77xxxxxx-44xxxxxx-1111xxxxxx--1111xx--1111xx--|--77xxxxxx--4--4--4----|
C|--77xxxxxx-44xxxxxx-1111xxxxxx--1111xx--1111xx--|--77xxxxxx--4--4--4----|


| /  slide up
| \  slide down
| h  hammer-on
| p  pull-off
| ~  vibrato
| +  harmonic
| x  Mute note
=============================================================
comments
We did not receive enough feedback on this tab! Please rate:
print report bad tab
1 2 3 4 5
1 comment total.
0 reply
Factor13x wrote on November 24 2008, 11:05 am

sorry everyone i messed up and figured out the second part of bridge in a different tuning to the way it should look is...

D|---------------|
A|---------------|
F|--------18-----|
C|-----18----18--|
G|--16-----------|
C|---------------|

I want to post or [tab]
guest
You may want to rate the tab now too:
select rating
Please do not post tabs as comments. Select "correction" instead!