Oops, an error
Loading. Please wait.

Studying Politics Tab

version 4
version 4

Whole song

Interactive

2,073 views 1 this week
no commentswrite comment
1 2 3 4 5
please rate
add to favorites
launch autoscroll
font size
0
reset
how to read this tab
guitar tuner
Tab Pro tools
  • play this tab
  • loop segment
  • change instrument
  • show fretboard
  • metronome
×
Best way to learn
"Studying Politics"
Autoscroll
slow
fast
+/-
esc
set tempo
stop
This tab is pretty complete except for the bridge*, which I couldn't quite figure out. 
anyone has tabbed the bridge and would like to add it, send me a message or leave it in 
comments. You will be credited!

VERSE
E|-------------------------|-----------------------------------------|
B|-------------------------|-----------------------------------------|
G|-------------------------|-----------------------------------------|
D|-------------------------|-44-XXXX-1-1-XXXX-88-XXXX----------------|
A|-------------------------|-44-XXXX-1-1-XXXX-88-XXXX----------------|
D|--PM-888888888888--------|-44-XXXX-1-1-XXXX-88-XXXX----------------|

E|--------------------------|-----------------|
B|--------------------------|-----------------|
G|--------------------------|--11-11-11-------|
D|-88-XXXX-44-XXXX-1-1-XXXX-|--x--x--x--------|
A|-88-XXXX-44-XXXX-1-1-XXXX-|--9--9--9--------|
D|-88-XXXX-44-XXXX-1-1-XXXX-|-----------------|

CHORUS

E|-------------------------|-----------------------------------------|
B|-------------------------|-----------------------------------------|
G|-----------------11-11-11|---------- -----11-11-11-----------------|
D|--888888888888---x--x--x-|-888888888888---x--x--x----1111111111111-|
A|--888888888888---9--9--9-|-888888888888---9--9--9----1111111111111-|
D|--888888888888-----------|-888888888888--------------1111111111111-|

E|--------------------------|
B|--------------------------|
G|------------------11-11-11|
D|--1111111111111---x--x--x-|
A|--1111111111111---9--9--9-|
D|--1111111111111-----------|(repeat)

E|-------------------------------------------------|
B|-------------------------------------------------|
G|-------------------------------------------------|
D|-44-XXXX-1-1-XXXX-88-XXXX-88-xx-88---------------|
A|-44-XXXX-1-1-XXXX-88-XXXX-88-xx-88---------------|
D|-44-XXXX-1-1-XXXX-88-XXXX-88-xx-88---------------| (repeat)

VERSE 2

E|-------------------------------------|
B|-------------------------------------|
G|-------------------------------------|
D|-88-XXXX-44-XXXX-1-1-XXXX-1-1-xx-1-1-|
A|-88-XXXX-44-XXXX-1-1-XXXX-1-1-xx-1-1-|
D|-88-XXXX-44-XXXX-1-1-XXXX-1-1-xx-1-1-| (repeat)

E|--------------------------------|---------------------------------------|
B|--------------------------------|---------------------------------------|
G|--------------------------------|------------------------------11-11-11-|
D|-88888888-44444444-1111111111---|-88888888-44444444-1111111111-x--x--x--|
A|-88888888-44444444-1111111111---|-88888888-44444444-1111111111-9--9--9--|
D|-88888888-44444444-1111111111---|-88888888-44444444-1111111111----------|

CHORUS

E|-------------------------|-----------------------------------------|
B|-------------------------|-----------------------------------------|
G|-----------------11-11-11|---------- -----11-11-11-----------------|
D|--888888888888---x--x--x-|-888888888888---x--x--x----1111111111111-|
A|--888888888888---9--9--9-|-888888888888---9--9--9----1111111111111-|
D|--888888888888-----------|-888888888888--------------1111111111111-|

E|--------------------------|----------------------------------------|
B|--------------------------|----------------------------------------|
G|------------------11-11-11|-----------------11-11-11---------------|
D|--1111111111111---x--x--x-|--888888888888---x--x--x---888888888888-|
A|--1111111111111---9--9--9-|--888888888888---9--9--9---888888888888-|
D|--1111111111111-----------|--888888888888-------------888888888888-|

E|--------------------------|----------------------------------------|
B|--------------------------|----------------------------------------|
G|-----11-11-11-------------|------------------11-11-11--------------|
D|-----x--x--x--------------|--1111111111111---x--x--x---66666666666-|
A|-----9--9--9--------------|--1111111111111---9--9--9---66666666666-|
D|--------------------------|--1111111111111-------------66666666666-|

BRIDGE*

VERSE
Some picking here without dist pedal; no rhythm guitar
E|-------------------------------------------------|
B|-------------------------------------------------|
G|-------------------------------------------------|
D|-------------------------------------------------|
A|-------------------------------------------------|
D|-------------------------------------------------|

OUTRO
E|------------------------|-----------------------|-----------------------|
B|------------------------|-----------------------|-----------------------|
G|------------------------|-----------------------|-----------------------|
D|--44444444-1111111111---|-44444444-1111111111---|-44444444-1111111111---|
A|--44444444-1111111111---|-44444444-1111111111---|-44444444-1111111111---|
D|--44444444-1111111111---|-44444444-1111111111---|-44444444-1111111111---|

E|------------------------|-----------------------|
B|------------------------|-----------------------|
G|------------------------|-----------------------|
D|--44444444-1111111111---|-44444444-1111111111---|
A|--44444444-1111111111---|-44444444-1111111111---|
D|--44444444-1111111111---|-44444444-1111111111---|

E|-------------------------------------|----------------------------------|
B|-------------------------------------|----------------------------------|
G|-------------------------------------|----------------------------------|
D|-88-XXXX-44-XXXX-1-1-XXXX-1-1-xx-1-1-|-88-XXXX-444----------------------|
A|-88-XXXX-44-XXXX-1-1-XXXX-1-1-xx-1-1-|-88-XXXX-444----------------------|
D|-88-XXXX-44-XXXX-1-1-XXXX-1-1-xx-1-1-|-88-XXXX-444----------------------|
comments
We did not receive enough feedback on this tab! Please rate:
print report bad tab
1 2 3 4 5
I want to post or [tab]
guest
You may want to rate the tab now too:
select rating
Please do not post tabs as comments. Select "correction" instead!