Oops, an error
Loading. Please wait.

The Ponytail Parades tab

version 2
version 2

Whole song

by Emery
2,335 views 1 this week
1 commentread comment
1 2 3 4 5
1 last vote to show rating
add to favorites
×
Save as Personal and add changes to this tab that will be seen only by you. Learn more ›
×
You can save this tab as Personal to edit and correct it or add notes. All changes will be seen only by you. Learn more »
launch autoscroll
font size
0
reset
how to read this tab
guitar tuner
edit
Autoscroll
slow
fast
+/-
esc
set tempo
stop
honestly this is just for a friend so he can learn it. i figured out how to play this 
but i didnt want to tab it out cus im lazy and i dont like tabbing since most of my sh*t 
but i think by far this my best one.

the tuning is a half step down from standard tuning.

numbers in ()'s means hold em out.
H=hammer on
p=pull off
/=slide up
\=slide down
x=mute note
b^=bend up
bv=bend down

Guitar 1
PM-------------------------------------||LET IT RING...
|----0-----0-----0-----0---|----0-----0-----0-----0-----||
|------7-----7-----7-----7-|------7-----7-----7-----7---||
|-8------8-----8-----8-----|-8------8-----8-----8-------||
|--------------------------|----------------------------||
|--------------------------|----------------------------||
|--------------------------|----------------------------||

Guitar 2.
|--------------------------|----------------0---0---0-||
|--------------------------|----------------4---4---4-||
|--------------------------|--------------------------||
|--------------------------|--------------------------||
|--------------------------|--------------------------||
|--------------------------|--------------------------||

"3 sleepless nights"

Guitar 2
|-----------------------------------|--------------------------------------|
|-----------------------------------|--------------------------------------|
|-11/13-13-13-13-13-13\11-11-11-----|-11/13-13-13-(13)-13-13\11-11-11-11---|
|--x-----x--x--x--x--x-----x--x-----|--x-----x--x-------x--x-----x--x--x---|
|--9/11-11-11-11-11-11\-9--9--9-----|--9/11-11-11-(11)-11-11\-9--9--9--9---|
|-----------------------------------|--------------------------------------|

Guitar 1
|-----0--------0--------0-------0---|-----0---------0---------0--------0---|
|--------7--------7--------7--------|--------7----------7--------7---------|
|--8--------8--------8--------8-----|--8--------8----------8--------8------|
|-----------------------------------|--------------------------------------|
|-----------------------------------|--------------------------------------|
|-----------------------------------|--------------------------------------|

"How it's supposed to be"             "But your so good at"
Guitar 2
|-------------------------------------|---------------------7-9-|
|-------------------------------------|-9p7--------7--9p7-9-----|
|-16---16-16-(16)-16-16\11-11-11-11---|-----9p8-9---------------|
|--x----x--x-------x--x-----x--x--x---|-------------------------|
|-14---14-14-(14)-14-14\-9--9--9--9---|-------------------------|
|-------------------------------------|-------------------------|

Guitar 1
|----0---------0---------0--------0---|-------------------------|
|-------7----------7--------7---------|---------------------7-9-|
|--8-------8----------8--------8------|-9p8--------8--9p8-9-----|
|-------------------------------------|-----9-6h9p(6)-----------|
|-------------------------------------|-------------------------|
|-------------------------------------|-------------------------|

"Taking your time"
Guitar 2
|-9-------------11----|----7-------7---------7-|---11------7----|
|---------------------|----------------9-------|----------------|
|---------------------|------------------------|----------------|
|---------------------|------------------------|----------------|
|---------------------|------------------------|----------------|
|---------------------|------------------------|----------------|

Guitar 1
|------------------|---------------------------|
|-9--------7-------|--(7)------9----7----------|
|------------------|--------------------9----8-|
|------------------|---------------------------|
|------------------|---------------------------|
|------------------|---------------------------|


Guitars 1&2   guitar 2   guitar 1
|------------|----0--0-|-----0-----||
|------------|----4/14-|-----2-----||
|------------|---------|-----------||
|------------|---------|-----------||
|-4--4--4----|---------|-----------||
|-2--2--2----|---------|-----------||

"I will wait for you forever"
clean guitar
|-------------------------|---0--------------------|
|---------------------7---|------------------------|
|-----------------8-------|------------------------|
|-------------------------|------------------------|
|-16----------------------|------------------------|
|-------------------------|------------------------|

|-----------------------|---0----------------------|
|-------------------7---|--------------------------|
|---------------8-------|--------------------------|
|-----------------------|--------------------------|
|-----------------------|--------------------------|
|-19--------------------|--------------------------|

|------------------------|--0-----------------------|
|--------------------5---|-------5------(5)---------|
|---------------6--------|--------------------------|
|------------------------|--------------------------|
|--0---------------------|--------------------------|
|------------------------|--------------------------|

|---------------0--------|--0----------------------|
|------------9-------9---|-10----------------------|
|--------9---------------|-------------------------|
|------------------------|-------------------------|
|--9---------------------|-------------------------|
|------------------------|-------------------------|

|----------------------0---|---------------------------|
|-----------------7--------|---7-----------------------|
|-8------------------------|--------8------(8)---------|
|-6------------------------|---------------------------|
|--------------------------|---------------------------|
|--------------------------|---------------------------|

|-------------------------|--0-------------------------|
|---------------------7---|-------7------(7)-----------|
|----------------8--------|----------------------------|
|-------------------------|----------------------------|
|-------------------------|----------------------------|
|-7-----------------------|----------------------------|

|----------------------0---|--(0)----------0-4-------|
|------------------5-------|-----------5-------------|
|-6------------------------|-------------------------|
|--------------------------|-------------------------|
|--------------------------|-------------------------|
|--------------------------|-------------------------|

|---------0---------|--0-----(0)------||
|-------7-----7-----|-----------------||
|-----8-----------8-|-----------------||
|-------------------|-----------------||
|-------------------|-----------------||
|--0----------------|-----------------||

"And it doesnt feel right"
Guitar 2
|-----------------------------------|--------------------------------------|
|-----------------------------------|--------------------------------------|
|-11/13-13-13-13-13-13\11-11-11-----|-11/13-13-13-(13)-13-13\11-11-11-11---|
|--x-----x--x--x--x--x-----x--x-----|--x-----x--x-------x--x-----x--x--x---|
|--9/11-11-11-11-11-11\-9--9--9-----|--9/11-11-11-(11)-11-11\-9--9--9--9---|
|-----------------------------------|--------------------------------------|

Guitar 1
|-----0--------0--------0-------0---|-----0---------0---------0--------0---|
|--------7--------7--------7--------|--------7----------7--------7---------|
|--8--------8--------8--------8-----|--8--------8----------8--------8------|
|-----------------------------------|--------------------------------------|
|-----------------------------------|--------------------------------------|
|-----------------------------------|--------------------------------------|

"holding someone elses hand"
Guitar 2
|-------------------------------------|---------------------7-9-|
|-------------------------------------|-9p7--------7--9p7-9-----|
|-16---16-16-(16)-16-16\11-11-11-11---|-----9p8-9---------------|
|--x----x--x-------x--x-----x--x--x---|-------------------------|
|-14---14-14-(14)-14-14\-9--9--9--9---|-------------------------|
|-------------------------------------|-------------------------|
Guitar 1
|----0---------0---------0--------0---|-------------------------|
|-------7----------7--------7---------|---------------------7-9-|
|--8-------8----------8--------8------|-9p8--------8--9p8-9-----|
|-------------------------------------|-----9-6h9p(6)-----------|
|-------------------------------------|-------------------------|
|-------------------------------------|-------------------------|

"together on phone lines"                      "Living at two"
Guitar 2
|-9-------------11----|----7-------7---------7-|---11------7----|
|---------------------|----------------9-------|----------------|
|---------------------|------------------------|----------------|
|---------------------|------------------------|----------------|
|---------------------|------------------------|----------------|
|---------------------|------------------------|----------------|

Guitar 1
|------------------|---------------------------|
|-9--------7-------|--(7)------9----7----------|
|------------------|--------------------9----8-|
|------------------|---------------------------|
|------------------|---------------------------|
|------------------|---------------------------|


Guitars 1&2   guitar 2   guitar 1
|------------|----0----|-----0-----||
|------------|----4----|-----2-----||
|------------|---------|-----------||
|------------|---------|-----------||
|-4--4--4----|---------|-----------||
|-2--2--2----|---------|-----------||

Guitar 1 (Guitar two does the clean guitar part in the background)

|--0---0---0----|---0--0--0---|----0---0--0---|
|-14--14--14----|--16-16-16---|----16-16-16---|
|---------------|-------------|---------------|
|---------------|-------------|---------------|
|---------------|-------------|---------------|
|---------------|-------------|---------------|

|--0--0---0--0----|(0)---------(0)-----(0)-(0)--|
|--4b^5---5bv4\---|-2----------(2)-----(2)/14---|
|-----------------|-----------------------------|
|-----------------|-----------------------------|
|-----------------|-----------------------------|
|-----------------|-----------------------------|

Guitar 1 (Clean guitar part again)
|--0---0---0---|--0---0---0---|--0---0---0---|--0---0---0---|-0--|
|-16--16--16---|-14--14--14---|-12--12--12---|-10--10--10---|-9^-|
|--------------|--------------|--------------|--------------|----|
|--------------|--------------|--------------|--------------|----|
|--------------|--------------|--------------|--------------|----|
|--------------|--------------|--------------|--------------|----|

"But you're careless"
Guitar 2
|---------------------------------------|---------------------------------------|
|--5---------4--------------------------|--5---------4--------------------------|
|----------------------4-----------4----|----------------------4-----------4----|
|----------------------------6----------|----------------------------6----------|
|---------------------------------------|---------------------------------------|
|---------------------------------------|---------------------------------------|

Guitar 1
|---------------------------------------|---------------------------------------|
|---------------------------------------|---------------------------------------|
|--6-------------------------------6----|-/8-------------------------------8----|
|------------6---------------6----------|------------6---------4/6--------------|
|----------------------4----------------|---------------------------------------|
|---------------------------------------|---------------------------------------|

"Insulting"
Guitar 2
|---------------------------------------|------------------------------------------|
|--5---------4--------------------------|---5---------4----------------------------|
|----------------------4-----------4----|-----------------------4-----------4------|
|----------------------------6----------|-----------------------------6------------|
|---------------------------------------|------------------------------------------|
|---------------------------------------|------------------------------------------|

Guitar 1
|---------------------------------------|------------------------------------------|
|---------------------------------------|------------------------------------------|
|-/9---------8---------------------8----|-/11---------9---------8------------------|
|----------------------9-----9----------|-----------------------------9-----9------|
|---------------------------------------|------------------------------------------|
|---------------------------------------|------------------------------------------|

"And I thought'

Guitar 2
|---------------------------------------|---------------------------------------|
|--5---------4--------------------------|--5---------4--------------------------|
|----------------------4-----------4----|----------------------4-----------4----|
|----------------------------6----------|----------------------------6----------|
|---------------------------------------|---------------------------------------|
|---------------------------------------|---------------------------------------|

Guitar 1
|---------------------------------------|---------------------------------------|
|---------------------------------------|---------------------------------------|
|--6-------------------------------6----|--8-------------------------------8----|
|------------4---------2-----2----------|------------6---------4/6--------------|
|---------------------------------------|---------------------------------------|
|---------------------------------------|---------------------------------------|

"Things were"

Guitar 2
|---------------------------------------|-----------------------------------------|
|--5---------4--------------------------|--5---------4----------------------------|
|----------------------4-----------4----|----------------------4-----------4------|
|----------------------------6----------|----------------------------6------------|
|---------------------------------------|-----------------------------------------|
|---------------------------------------|-----------------------------------------|

Guitar 1
|---------------------------------------|-----------------------------------------|
|---------------------------------------|-----------------------------------------|
|-/9---------8--------------------------|-/9---------8----------------------------|
|----------------------9-----6----------|----------------------9-----6------------|
|---------------------------------------|-----------------------------------------|
|---------------------------------------|-----------------------------------------|

"These Laces"                          "Are untied"
Guitar 2
|-------------------------------------|-------------------------------------|
|-------------------------------------|-------------------------------------|
|--6-----6--6--6--6--6-----6--6--6--6/|--9-----9--9--9--9--9-----9--9--9--9-|
|--x-----x--x--x--x--x-----x--x--x--x/|--x-----x--x--x--x--x-----x--x--x--x-|
|--4-----4--4--4--4--4-----4--4--4--4/|--7-----7--7--7--7--7-----7--7--7--7-|
|-------------------------------------|--0-----0--0--0--0--0-----0--0--0--0-|

Guitar 1
|-------------------------------------|-------------------------------------|
|-------------------------------------|-------------------------------------|
|--6-----6--6--6--6--6-----6--6--6--6-|-------------------------------------|
|--6-----6--6--6--6--6-----6--6--6--6-|--6-----6--6--6--6--6-----6--6--6--6-|
|--4-----4--4--4--4--4-----4--4--4--4-|--7-----7--7--7--7--7-----7--7--7--7-|
|--4-----4--4--4--4--4-----4--4--4--4-|--0-----0--0--0--0--0-----0--0--0--0-|

"But my feet are"
Guitar 2
|------------------------------------------|------------------------------------------|
|------------------------------------------|------------------------------------------|
|-14--------13--------11---------9---------|--8---------9---------4-------------------|
|--x---------x---------x---------x---------|--x---------x---------x-------------------|
|-12--------11---------9---------7---------|--6---------7---------2-------------------|
|------------------------------------------|------------------------------------------|

Guitar 1
|------------------------------------------|------------------------------------------|
|------------------------------------------|------------------------------------------|
|-14--------13--------11---------9-----(9)/|-16-------(16)------(16)------------------|
|--x---------x---------x---------x---------|--x---------------------------------------|
|-12--------11---------9---------7-----(7)/|-14-------(14)------(14)------------------|
|------------------------------------------|------------------------------------------|

"away"
Guitar 1
|--0-------|--(0)------|------------|-----------------||
|--4-------|--(4)------|--0---------|-(0)-------------||
|--4-------|--(4)------|--2---------|-(2)-------------||
|--2-------|--(2)------|--2---------|-(2)-------------||
|--0-------|--(0)------|--0---------|-(0)-------------||
|----------|-----------|------------|-----------------||

Guitar 2
|----------|-----------|--7-----7---|-----7-------7---||
|----------|-----------|--8-------8-|-(8)---8-(8)---8-||
|-14-------|-----------|--5---------|-----------------||
|--x-------|-----------|--7---------|-----------------||
|-12-------|-----------|--0---------|-----------------||
|----------|-----------|------------|-----------------||

both guitars clean
"i never thought that"
|----0-------0---|-----0-------0---|-----0-------0---|-----0-------0----|
|------4---4---4-|-------4---4---4-|-------4---4---4-|-------4---4---4--|
|-4------4-------|--4------4-------|--4------4-------|--4------4--------|
|----------------|-----------------|-----------------|------------------|(2x)
|----------------|-----------------|-----------------|------------------|
|----------------|-----------------|-----------------|------------------|

|--2-------------|--2--------------|--0--------------|--4---------------|
|--4-------------|--4--------------|--2--------------|--2---------------|
|--4-------------|--4--------------|--2--------------|--2---------------|
|--2-------------|-----------------|-----------------|------------------|(2x)
|----------------|-----------------|-----------------|------------------|
|----------------|-----------------|-----------------|------------------|

then after playing that 2ice, it goes like the following 4 times.

|---0-------0---|---0-------0---|---0-------0---|----0--------0----|
|-----4---4---4-|-----4---4---4-|-----4---4---4-|-------4---4---4--|
|-4-----4-------|-4-----4-------|-4-----4-------|-4-------4--------|
|---------------|---------------|---------------|------------------|
|---------------|---------------|---------------|------------------|
|---------------|---------------|---------------|------------------|

|---4p0---2---2-|---4p0-----0---|---7p0---4---4-|----0--------0--|
|-0-----0---0---|-0-----0-4---4-|-0-----0---0---|-4-(4)/7\4---4--|
|---------------|---------------|---------------|----------------|
|---------------|---------------|---------------|----------------|
|---------------|---------------|---------------|----------------|
|---------------|---------------|---------------|----------------|

Break down.
both guitars.
|-------------------------|
|-------------------------|
|-6-6-6-6-6-6-------------|
|-6-6-6-6-6-6-------------|(2x)
|-4-4-4-4-4-4-------------|
|-4-4-4-4-4-4-------------|

"Erase my name, from this page"

guitar 1
|-------------|-9-9-9-9-9-9-|-------------|-7-7-7-7-7-7-|
|-------------|-------------|-------------|-------------|
|-6-6-6-6-6-6-|-------------|-6-6-6-6-6-6-|-------------|
|-6-6-6-6-6-6-|-------------|-6-6-6-6-6-6-|-------------|
|-4-4-4-4-4-4-|-------------|-4-4-4-4-4-4-|-------------|
|-4-4-4-4-4-4-|-------------|-4-4-4-4-4-4-|-------------|

guitar 2
|-------------|-------------|-------------|-------------|
|-------------|-5-5-5-5-5-5-|-------------|-4-4-4-4-4-4-|
|-6-6-6-6-6-6-|-------------|-6-6-6-6-6-6-|-------------|
|-6-6-6-6-6-6-|-------------|-6-6-6-6-6-6-|-------------|
|-4-4-4-4-4-4-|-------------|-4-4-4-4-4-4-|-------------|
|-4-4-4-4-4-4-|-------------|-4-4-4-4-4-4-|-------------|

"how can you take"
Guitar 1
|-------------------------------------|-------------------------------------|
|-------------------------------------|-------------------------------------|
|--2-----2--2--2--2--2-----2--2--2--2-|-------------------------------------|
|--2-----2--2--2--2--2-----2--2--2--2-|--4-----4--4--4--4--4-----4--4--4--4-|
|--0-----0--0--0--0--0-----0--0--0--0-|--4-----4--4--4--4--4-----4--4--4--4-|
|-------------------------------------|--2-----2--2--2--2--2-----2--2--2--2-|

Guitar 2
|-------------------------------------|-------------------------------------|
|-------------------------------------|-------------------------------------|
|--4-----4--4--4--4--4-----4--4--4--4-|-------------------------------------|
|--2-----2--2--2--2--2-----2--2--2--2-|--4-----4--4--4--4--4-----4--4--4--4-|
|--0-----0--0--0--0--0-----0--0--0--0-|--4-----4--4--4--4--4-----4--4--4--4-|
|-------------------------------------|--2-----2--2--2--2--2-----2--2--2--2-|

"and throw"
Guitar 1
|-------------------------------------|---------------------------------------|
|-------------------------------------|---------------------------------------|
|--6-----6--6--6--6--6-----6--6--6--6-|--9-----9--9--9--9--9-----9--9--9--9---|
|--6-----6--6--6--6--6-----6--6--6--6-|--9-----9--9--9--9--9-----9--9--9--9---|
|--4-----4--4--4--4--4-----4--4--4--4-|--7-----7--7--7--7--7-----7--7--7--7---|
|--4-----4--4--4--4--4-----4--4--4--4-|--0-----0--0--0--0--0-----0--0--0--0---|

|-------------------------------------|---------------------------------------|
|-------------------------------------|---------------------------------------|
|--6-----6--6--6--6--6-----6--6--6--6-|---------------------------------------|
|--6-----6--6--6--6--6-----6--6--6--6-|--6-----6--6--6--6--6-----6--6--6--6---|
|--4-----4--4--4--4--4-----4--4--4--4-|--7-----7--7--7--7--7-----7--7--7--7---|
|--4-----4--4--4--4--4-----4--4--4--4-|--0-----0--0--0--0--0-----0--0--0--0---|

"as I sit here waiting"
Guitar 1
|-------------------------------------|-------------------------------------|
|-------------------------------------|-------------------------------------|
|--2-----2--2--2--2--2-----2--2--2--2-|-------------------------------------|
|--2-----2--2--2--2--2-----2--2--2--2-|--4-----4--4--4--4--4-----4--4--4--4-|
|--0-----0--0--0--0--0-----0--0--0--0-|--4-----4--4--4--4--4-----4--4--4--4-|
|-------------------------------------|--2-----2--2--2--2--2-----2--2--2--2-|

Guitar 2
|-------------------------------------|-------------------------------------|
|-------------------------------------|-------------------------------------|
|--4-----4--4--4--4--4-----4--4--4--4-|-------------------------------------|
|--2-----2--2--2--2--2-----2--2--2--2-|--4-----4--4--4--4--4-----4--4--4--4-|
|--0-----0--0--0--0--0-----0--0--0--0-|--4-----4--4--4--4--4-----4--4--4--4-|
|-------------------------------------|--2-----2--2--2--2--2-----2--2--2--2-|

"FOR YOU"
guitar 1
|-------------|-9-9-9-9-9-9-|-------------|-7-7-7-7-7-7-|
|-------------|-------------|-------------|-------------|
|-6-6-6-6-6-6-|-------------|-6-6-6-6-6-6-|-------------|
|-6-6-6-6-6-6-|-------------|-6-6-6-6-6-6-|-------------|
|-4-4-4-4-4-4-|-------------|-4-4-4-4-4-4-|-------------|
|-4-4-4-4-4-4-|-------------|-4-4-4-4-4-4-|-------------|

guitar 2
|-------------|-------------|-------------|-------------|
|-------------|-5-5-5-5-5-5-|-------------|-4-4-4-4-4-4-|
|-6-6-6-6-6-6-|-------------|-6-6-6-6-6-6-|-------------|
|-6-6-6-6-6-6-|-------------|-6-6-6-6-6-6-|-------------|
|-4-4-4-4-4-4-|-------------|-4-4-4-4-4-4-|-------------|
|-4-4-4-4-4-4-|-------------|-4-4-4-4-4-4-|-------------|

"I stay up nights"
Guitar 1
|-------------------------------------|-------------------------------------|
|-------------------------------------|-------------------------------------|
|--2-----2--2--2--2--2-----2--2--2--2-|-------------------------------------|
|--2-----2--2--2--2--2-----2--2--2--2-|--4-----4--4--4--4--4-----4--4--4--4-|
|--0-----0--0--0--0--0-----0--0--0--0-|--4-----4--4--4--4--4-----4--4--4--4-|
|-------------------------------------|--2-----2--2--2--2--2-----2--2--2--2-|

Guitar 2
|-------------------------------------|-------------------------------------|
|-------------------------------------|-------------------------------------|
|--4-----4--4--4--4--4-----4--4--4--4-|-------------------------------------|
|--2-----2--2--2--2--2-----2--2--2--2-|--4-----4--4--4--4--4-----4--4--4--4-|
|--0-----0--0--0--0--0-----0--0--0--0-|--4-----4--4--4--4--4-----4--4--4--4-|
|-------------------------------------|--2-----2--2--2--2--2-----2--2--2--2-|

"until stars reach the sky"
Guitar 1
|-------------------------------------|---------------------------------------|
|--5--5-----5--5-----5--5-----5--5----|---------------------------------------|
|--6--6-----6--6-----6--6-----6--6----|-11-11----11-11----11-11----11-11------|
|--6--6-----6--6-----6--6-----6--6----|--9--9-----9--9-----9--9-----9--9------|
|--4--4-----4--4-----4--4-----4--4----|--7--7-----7--7-----7--7-----7--7------|
|-------------------------------------|---------------------------------------|

Guitar 2
|-------------------------------------|---------------------------------------|
|--4--4-----4--4-----5--5-----5--5----|---------------------------------------|
|--6--6-----6--6-----6--6-----6--6----|-11-11----11-11-----9--9-----9--9------|
|--6--6-----6--6-----6--6-----6--6----|--9--9-----9--9-----9--9-----9--9------|
|--4--4-----4--4-----4--4-----4--4----|--7--7-----7--7-----7--7-----7--7------|
|-------------------------------------|---------------------------------------|

"knowing what my dreams"
Guitar 1
|-------------------------------------|-------------------------------------|
|-------------------------------------|-------------------------------------|
|--2-----2--2--2--2--2-----2--2--2--2-|-------------------------------------|
|--2-----2--2--2--2--2-----2--2--2--2-|--4-----4--4--4--4--4-----4--4--4--4-|
|--0-----0--0--0--0--0-----0--0--0--0-|--4-----4--4--4--4--4-----4--4--4--4-|
|-------------------------------------|--2-----2--2--2--2--2-----2--2--2--2-|

Guitar 2
|-------------------------------------|-------------------------------------|
|-------------------------------------|-------------------------------------|
|--4-----4--4--4--4--4-----4--4--4--4-|-------------------------------------|
|--2-----2--2--2--2--2-----2--2--2--2-|--4-----4--4--4--4--4-----4--4--4--4-|
|--0-----0--0--0--0--0-----0--0--0--0-|--4-----4--4--4--4--4-----4--4--4--4-|
|-------------------------------------|--2-----2--2--2--2--2-----2--2--2--2-|

"TAKE AWAY!"
guitar 2
|-------------------|---------------------||
|-------------------|---------------------||
|-6--6-6-6-6-6------|-6--6-6-6-6-6--------||
|-6--6-6-6-6-6------|-6--6-6-6-6-6--------||
|-4--4-4-4-4-4------|-4--4-4-4-4-4--------||
|-4--4-4-4-4-4------|-4--4-4-4-4-4--------||

guitar 1
|-------------------|---------------------||
|-------------------|---------------------||
|-6--6-6-6-6-6------|-6--6-6-6-6-6-x--x-x-||
|-6--6-6-6-6-6------|-6--6-6-6-6-6-x--x-x-||
|-4--4-4-4-4-4------|-4--4-4-4-4-4-x--x-x-||
|-4--4-4-4-4-4------|-4--4-4-4-4-4-x--x-x-||

"WALK AWAY FROM ME!"

Guitar 1
|-------------------------|-------------------|
|-------------------------|-------------------|
|-------------------------|-------------------|
|-------6-----------6-----|-------6-----------|(2x)
|-4-4-------4-2-2-------2-|------------7--6-4-|
|-------------------------|-2-2---------------|

Guitar 2
|-------------------------|-------------------|
|-------------------------|-------------------|
|-6-6---------4-4---------|-----------13-11-9-|
|-6-6---------4-4---------|-4-4--------x--x-x-|(2x)
|-4-4---------2-2---------|-4-4-------11--9-7-|
|-4-4---------2-2---------|-2-2---------------|

Guitar 1
|-------------------------|---------------------*|
|-------------------------|---------------------*|
|---------4-4---------4-4-|---------4-4---------*|
|-----6-6---------6-6-----|-----6-6-------------*|
|-4-4---------4-4---------|-4-4----------7--6-4-*|
|-------------------------|---------------------*|

Guitar 2
|-------------------------|---------------------*|
|-------------------------|---------------------*|
|-6-6---------6-6---------|-6-6---------13-11-9-*|
|-6-6---------6-6---------|-6-6----------x--x-x-*|
|-4-4---------4-4---------|-4-4---------11--9-7-*|
|-4-4---------4-4---------|-4-4-----------------*|

            
            
Suggest correction
Creating personal tab
Creating personal tab
You can edit any tab online and save it as your Personal.

You can edit, replace or remove any tab part or add personal notes – all changes will be seen only by you.

Personal tabs can be accessed anytime from any device, even offline.
Learn more »
Give kudos to tab author, rate the tab!
1 2 3 4 5
comments
print report bad tab
1 comment total.
0 reply
guitar-girl21 36 Mar 08, 2011 05:16 AM

I haven't tried this yet, but it looks really good and I can tell you put alot of work into this. I'll rate it once I try it (:

guest
You may want to rate the tab now too:
select rating
Wanna post a correction for this tab? Suggest correction