Oops, an error
Loading. Please wait.

Walls tab

version 2
version 2

Whole song

Interactive

by Emery
2,227 views 1 this week
1 commentread comment
1 2 3 4 5
2 more votes to show rating
add to favorites
×
Save as Personal and add changes to this tab that will be seen only by you. Learn more ›
×
You can save this tab as Personal to edit and correct it or add notes. All changes will be seen only by you. Learn more »
launch autoscroll
font size
0
reset
how to read this tab
guitar tuner
edit
Autoscroll
slow
fast
+/-
esc
set tempo
stop
-------------------------------------------------------------------------------
                             Walls - Emery
-------------------------------------------------------------------------------
Tabbed by: tviscomcastic
Email: emery.volcom@gmail.com

Tuning:

| /  slide up
| \  slide down
| h  hammer-on
| p  pull-off
| ~  hold out note
| +  harmonic

So uhm.... i got my guitar and figured out the tabs myself. just to let u know it may
b 100 % but its very close. also if youve ever seen Emery live, you'll know that in the
before the second verse, Matt always does a different solo from that which is in the
so feel free to not pay attention to that part and make up your own solo. so ummm im
up to guitar parts since you know there are two. . . .yea . . . .

Guitar 1
e|----------------------------------------------------------|
B|----------------------------------------------------------|
G|--99999-99-9-9-99999-99-9-9-11-8888-88-8-8--88888-88-8-8--|
D|--99999-99-9-9-99999-99-9-9-11-9999-99-9-9--99999-99-9-9--|(2x)
A|--77777-77-7-7-77777-77-7-7--9-6666-66-6-6--66666-66-6-6--|
E|----------------------------------------------------------|


e|---------------------------------------------------|
B|---------------------------------------------------|
G|----8----8----8----8-9-8---------------------------|8x.
D|--9---9----9----9---------9------------------------|
A|---------------------------------------------------|
E|---------------------------------------------------|

then the part that goes along withe the keyboard

e|---------------------------------------------------|
B|---------------------------------------------------|
G|--8-8-8-9-8~-8-8-8-9-8~-8-8-8-11-8~-8-8-8-11-8~----|
D|---------------------------------------------------|
A|---------------------------------------------------|
E|---------------------------------------------------|

Chorus
"sometimes.."  the fill with the keyboard.
e|------------|----------------------------------------|-------------------------|
B|------------|----------------------------------------|-------------------------|
G|--9~-9~-----|----------------------------------------|---9~-11~------9999------|
D|--9~-9~-----|--8-8-8-9-8(2x)--8-8-8-11-8--8-8-8-11---|---9~--9~------9999(16x)-|
A|--7~-7~-----|--------------------------------------8-|---7~--9~------6666------|
E|------------|----------------------------------------|---------------....------|


Solo (These fights with your arms [im not so sure if its right... as clsoe as i'll ever get.)

e|-----------------------|
B|-----------------------|
G|-11-11-11-11-11-11-11--|
D|--9--9--9--9--9--9--9--|
A|-----------------------|
E|-----------------------|

e|----------------------|
B|------------11--9-----|
G|11-11-11-11xxxxxxx11--|
D|-9--9--9--9--9--9--9--|
A|----------------------|
E|----------------------|


e|-------------------|
B|-------------------|
G|--8-8-/9-9\8/-6~---|
D|--9-9--9-9-9--9~---|
A|-------------------|
E|-------------------|

then(optional)
e|-----------------------------|
B|-----------------------------|
G|-----------------------------|
D|-----9-----------------------|
A|---9---9~--------------------|
E|-----------------------------|

"Tear out these veins"
e|--------------------------------------------------------|
B|--9--9--9--9--9--9--9----------11--9--------------------|
G|--x--x--x--x--x--x--x-11-11-11--x--x-9-9--9\8-9-8-6-6---|
D|--9--9--9--9--9--9--9--9--9--9--9--9-9-9--9-9-9-9-9-9---|
A|--------------------------------------------------------|
E|--------------------------------------------------------|


e|---------------------------------------------------|
B|---------------------------------------------------|
G|--6--6--6--6--6--5--5--5--5~-----------------------|
D|--6--6--6--6--6--6--6--6--6~-----------------------|
A|---------------------------------------------------|
E|---------------------------------------------------|

SOOOO heres that part i told you that matt adds a little ad lib solo(see bottom)... but 
give
the original recording one....


e|---------------------------------------------------|
B|---------------------------------------------------|
G|---------------------------------------------------|
D|--9~--9\1~--1/8-9/11~/16---------------------------|
A|---------------------------------------------------|
E|---------------------------------------------------|

e|---------------------------------------------------|
B|---------------------------------------------------|
G|----8----8----8----8-9-8---------------------------|x8or16x. see below.
D|--9---9----9----9---------9------------------------|
A|---------------------------------------------------|
E|---------------------------------------------------|

you can choose to keep doing the above pattern, but when the song is perfromed live,
guitars go to this

e|---------------------------------------------------------------|
B|---------------------------------------------------------------|
G|-6666-------13131313-------9999-------8~-----------------------|
D|-6666(32x)--13131313(16x)--9999(16x)--8~-----------------------|
A|-4444-------11111111-------7777-------6~-----------------------|
E|---------------------------------------------------------------|

but make sure you stop early so you can fit in

e|---------------------------------------------------|
B|---------------------------------------------------|
G|--8-8-8-9-8~-8-8-8-9-8~-8-8-8-11-8~-8-8-8-11-8~----|
D|---------------------------------------------------|
A|---------------------------------------------------|
E|---------------------------------------------------|

Chorus

e|---------------------------------------------------|
B|---------------------------------------------------|
G|-8-8-8-8-8-8-8-8-8-8-8-8--9-9-9-9-9-9-9-9-9-9-9-9--|
D|---------------------------------------------------|(2x)
A|---------------------------------------------------|
E|---------------------------------------------------|

then on the third time do this

e|---------------------------------------------------|
B|-7-7-7-7-7-7-7-7-7-7-7-7--9-9-9-9-9-9-9-9-9-9-9-9--|
G|-8-8-8-8-8-8-8-8-8-8-8-8--9-9-9-9-9-9-9-9-9-9-9-9--|
D|---------------------------------------------------|
A|---------------------------------------------------|
E|---------------------------------------------------|

e|---------------|
B|---------------|
G|-66--------999-|
D|-66--------999-|(2x)
A|-44--------777-|
E|---------------|

then break off into this. just dont play where the x's are they're there to fill in as rests.

e|-----------------------|
B|-----------------------|
G|-xx-9~-9~--xxx--8~-8~--|
D|-xx--------xxx---------|(2x)
A|-xx--------xxx---------|
E|-----------------------|

and the solo at the end which may be tricky depending on how good you are...


e|------------------------|
B|-0-0--------------------|
G|------2--1--2--1--------|
D|------------------2--1--|(10x)
A|------------------------|
E|------------------------|

and end

GUITAR 2!!!!!!!
pretty damn simple rhythm.....


e|----------------------------------------------------------|
B|-55555-55-5-5-55555-55-5-5--44444-44-4-4--44444-44-4-4----|
G|-66666-66-6-6-66666-66-6-6--44444-44-4-4--44444-44-4-4----|
D|-66666-66-6-6-66666-66-6-6--44444-44-4-4--44444-44-4-4----|(2x)
A|-44444-44-4-4-44444-44-4-4--22222-22-2-2--22222-22-2-2----|
E|----------------------------------------------------------|

Play this after he sings "The scenery's all drawn."


e|-------------|
B|-------------|
G|-6-6-6-6-66~-|
D|-6-6-6-6-66~-|
A|-4-4-4-4-44~-|
E|-------------|

Then you wait.. then the keyboard part


e|-------|
B|-------|
G|---8~--|
D|---9~--|
A|---6~--|
E|-------|

Then the chorus
"Sometimes.."  Keyboard fill        "Your eyes..."
e|------------|--------------------|------------------|
B|--5~-5------|------------4-------|---5~--5----------|
G|--6~-6-9~---|-----8------4-------|---6~--6~--4------|
D|--6~-6-9~---|-----9(16x)-4(16x)--|---6~--6~--4(16x)-|
A|--4~-4-7~---|-----6------2-------|---4~--4~--2------|
E|------------|--------------------|-----------.------|

e|--------|
B|--------|
G|--1313--|
D|--1313--|
A|--1111--|
E|--------|

e|--------|
B|--------|
G|--1111--|
D|---9-9--|
A|---9-9--|
E|--------|

e|--------|
B|--------|
G|---99---|
D|---99---|
A|---77---|
E|--------|

e|-------------|
B|-------------|
G|--1111-1111~-|
D|---9-9--9-9~-|
A|---9-9--9-9~-|
E|-------------|

e|---------------------------------------------------|
B|---------------------------------------------------|
G|--1313131313131313-1111111111111111-99-9-9~--------|
D|--1313131313131313--9-9-9-9-9-9-9-9-99-9-9~--------|
A|--1111111111111111--9-9-9-9-9-9-9-9-77-7-7~--------|
E|---------------------------------------------------|

you can stroke these or let them ring its all on you i couldnt really tell if they were
ringing or stroking so u decide.

e|------------|
B|------------|
G|---9~---8~--|
D|---9~---9~--|
A|---7~---6~--|
E|------------|

and this is wheres matt's solo is....

. . . .

. . . .


and this is where it ends.


e|------|
B|------|
G|--4~--|
D|--4~--|
A|--2~--|
E|------|

and then this part if you choose to do it.
e|----------------------------------------------------|
B|----------------------------------5~----------------|
G|-6666-------6666-------2222-------6~----------------|
D|-6666(16x)--6666(16x)--2222(16x)--6~----------------|
A|-4444-------6666-------2222-------4~----------------|
E|------------4444-------0000-------------------------|

chorus

"let the walls have their say..."
e|---------------------------------------------------|
B|---------------------------------------------------|
G|-8-8-8-8-8-8-8-8-8-8-8-8--9-9-9-9-9-9-9-9-9-9-9-9--|
D|---------------------------------------------------|(2x)
A|---------------------------------------------------|
E|---------------------------------------------------|
  ..................................................


e|---------------------------------------------------|
B|-7-7-7-7-7-7-7-7-7-7-7-7--9-9-9-9-9-9-9-9-9-9-9-9--|
G|-8-8-8-8-8-8-8-8-8-8-8-8--9-9-9-9-9-9-9-9-9-9-9-9--|
D|---------------------------------------------------|
A|---------------------------------------------------|
E|---------------------------------------------------|
  ...................................................


e|---------------|
B|---------------|
G|-66--------999-|
D|-66--------999-|(2x)
A|-44--------777-|
E|---------------|


e|------------------------------|
B|-55--------555----------------|
G|-66--------666--99--------999-|
D|-66--------666--99--------999-|(2x)
A|-44--------444--77--------777-|
E|------------------------------|

e|-----------------|
B|-5--------4------|
G|-6--------4------|
D|-6(16x)---4(16x)-|(2x)
A|-4--------2------|
E|-----------------|

e|---------------------|
B|-5---5---5---5--5----|
G|-6---6---6---6--6----|
D|-6---6---6---6--6----|
A|-4---4---4---4--4----|
E|---------------------|

and thats it....

heres what matt's solo looks like (taken from the DVD included in the Deluxe Edition of 
Question")

e|-------------------------4-------------------------------------------------|
B|-------------------4h5p4----7b^9-7-----------------------------------------|
G|-----------4h6p4h6-----------------9-8-6--9p8p6~-9p8p6~--------------------|
D|--4h6p4h6------------------------------------------------------------------|
A|---------------------------------------------------------------------------|
E|---------------------------------------------------------------------------|

and it ends something like this
e|---------------------------------|
B|---------------------------------|
G|---------------------------------|
D|---6----8----13--13-13-13--13\---|
A|---7----9----14--14-14-14--14\---|
E|---------------------------------|

===============================================================================

            
            
Suggest correction
Creating personal tab
Creating personal tab
You can edit any tab online and save it as your Personal.

You can edit, replace or remove any tab part or add personal notes – all changes will be seen only by you.

Personal tabs can be accessed anytime from any device, even offline.
Learn more »
Give kudos to tab author, rate the tab!
1 2 3 4 5
comments
print report bad tab
1 comment total.
0 reply
nanokiller 31 Feb 22, 2008 01:46 PM

As much as i hate to use drop-d like tuning, for this song to reach the way they play it on the cd, it needs to drop down to c#. A lot of stuff is right for the most part, but it does need to go down

guest
You may want to rate the tab now too:
select rating
Wanna post a correction for this tab? Suggest correction