Oops, an error
Loading. Please wait.

Babe ukulele

version 1
version 1

Whole song

Interactive

94 views 1 this week
no commentswrite comment
1 2 3 4 5
3 more votes to show rating
add to favorites
×
Save as Personal and add changes to this tab that will be seen only by you. Learn more ›
×
You can save this tab as Personal to edit and correct it or add notes. All changes will be seen only by you. Learn more »
launch autoscroll
font size
0
reset
transpose
0
reset
display chords
guitar tuner
backing track
0:00
0:00
edit
Autoscroll
slow
fast
+/-
esc
set tempo
stop
Strumming
There is no strumming pattern for this song yet. and get +5 IQ
Artist: Emigrate
Song: Babe
Album: In My Tears
Tab by: BeberasmuS bebe_4048@hotmail.com
Drop D DADGBE

Beautiful song!

Intro (Echo effect)
E|-------------------|
B|-------------------|
G|-7~-7~-7~-7~-7~-7~-|
D|-5~-5~-5~-5~-5-~5~-|
A|-------------------|
D|-------------------|

Intro 2/Verse (Echo Effect)
E|----------|----|-------------|
B|----------|----|-------------|
G|-7~-5~-3~-|-3~-|-7~-5~-3~-3~-|
D|-5~-3~-1~-|-1~-|-5~-3~-1~-1~-|
A|----------|----|-------1~----|
D|----------|----|-------------|

Prechorus:
E|-------|
B|-------|
G|-3~-3~-|
D|-1~-1~-|
A|-1~-1~-|
D|-------|

Chorus:
E|-------------------------------------|
B|-------------------------------------|
G|-------------------------------------|
D|-00000000-11111111-55555555-33333333-|
A|-00000000-11111111-55555555-33333333-|X2
D|-00000000-11111111-55555555-33333333-|

Verse 2 same as verse 1

Chorus x4

Solo:
E|--------------------------------------|------------------------------------|----------|
B|--------------------------------------|---------------6/10b-10b---5*-------|----------|
G|-6-7b--6-7-6-6^-7--6-7-6b-3b----3b----|-6b-7b--6-7-6b-----------4----3b----|----------|
D|-----------------------------5b----1~-|---------------------------------5^-|----0-1-3-|
A|--------------------------------------|------------------------------------|-/4-------|
D|--------------------------------------|------------------------------------|----------|

E|--------------------------------------------|--------------------------------|
B|----------------------13b-13b-----13h15-15~-|--------------------------------|
G|-6b-7b-6h7/12b-12b/14---------12b-----------|----5b---4b---2b-3b---2-3b/5b~~-|
D|--------------------------------------------|-/5----5----5-------5-----------|
A|--------------------------------------------|--------------------------------|
D|--------------------------------------------|--------------------------------|

2nd Guitar plays chorus in the solo

REPEAT CHORUS A LOT OF TIMES

End:(Echo effect)
E|-------------------|
B|-------------------|
G|-7~-7~-7~-7~-7~-7~-|
D|-5~-5~-5~-5~-5-~5~-|
A|-------------------|
D|-------------------|

EASY!
|m/
PEACE!!
Suggest correction
Creating personal tab
Creating personal tab
You can edit any tab online and save it as your Personal.

You can edit, replace or remove any tab part or add personal notes – all changes will be seen only by you.

Personal tabs can be accessed anytime from any device, even offline.
Learn more »
Give kudos to tab author, rate the tab!
1 2 3 4 5
comments
print report bad tab
guest
Wanna post a correction for this tab? Suggest correction