Oops, an error
Loading. Please wait.

Emigrate album tab

version 1
version 1

Album

Whole song

Interactive

2,080 views 1 this week
no commentswrite comment
1 2 3 4 5
1 last vote to show rating
add to favorites
×
Save as Personal and add changes to this tab that will be seen only by you. Learn more ›
×
You can save this tab as Personal to edit and correct it or add notes. All changes will be seen only by you. Learn more »
launch autoscroll
font size
0
reset
how to read this tab
guitar tuner
backing track
0:00
0:00
edit
Autoscroll
slow
fast
+/-
esc
set tempo
stop
Author
Difficulty
Artist:         Emigrate
Album:          Emigrate [Limited Edition] 
Release Date:   2007    
tracks:         13

Song:    Emigrate
Tuning   Drop D

Main Riff: [Gtr I]
|---------------------------------|---------------------------------|
|---------------------------------|---------------------------------|
|---------------------------------|---------------------------------|
|---------------------------------|---------------------------------|
|---3-5-6-5-----5----5----5---5---|---3-5-6-2-----5----5----5---5---|
|------------00-0-00-0-00-0-0-0---|------------00-0-00-0-00-0-0-0---|
             ..   ..   ..   .                  ..   ..   ..   .

Main Riff: [Gtr II]
|-------------------------------------------------|
|-------------------------------------------------|
|---14-------17---15-------17---12-------14---7---|
|---14-------17---15-------17---12-------14---7---|
|---12-------15---13-------15---10-------12---5---|
|-------------------------------------------------|


Verse 1: [Gtr I]
|--------------------|
|--------------------|
|--------------------|
|--------------------|
|-----5----5---5-----|
|---0-0-00-0-0-0-0---|
    .   ..   .   .

Verse 2: [Gtr II]  
                   2x                   2x  
|--------------------|--------------------|
|--------------------|--------------------|
|--------------------|--------------------|
|--------------------|-----1----1---1-----|
|-----5----5---5-----|-----1----1---1-----|
|---0-0-00-0-0-0-0---|---1-1-11-1-1-1-1---|
    .   ..   .   .       .   ..   .   .
                   2x                   2x
|--------------------|--------------------|
|--------------------|--------------------|
|--------------------|--------------------|
|-----3----3---3-----|--------------------|
|-----3----3---3-----|-----5----5---5-----|
|---3-3-33-3-3-3-3---|---0-0-00-0-0-0-0---|
    .   ..   .   .       .   ..   .   .

Verse 2: [Gtr II]
|-----------8----------8---------|-----------8---------8----------|
|-----10---------10---------10---|-----11---------11---------11---|
|---7-----7----7-----7----7------|---8-----8----8-----8----8------|
|--------------------------------|--------------------------------|
|--------------------------------|--------------------------------|
|--------------------------------|--------------------------------|

|-----5---8---5---8---5---|---------8-------8-------|
|-------------------------|-----7-------7-------7---|
|---5---5---5---5---5-----|---7---7---7---7---7-----|
|-------------------------|-------------------------|
|-------------------------|-------------------------|
|-------------------------|-------------------------|

Riff 2: [Gtr I & Gtr II]
|-----------------------------|
|-----------------------------|
|-----------------------------|
|---3-3-3-3-33---5-5-5-5-55---|
|---3-3-3-3-33---5-5-5-5-55---|
|---3-3-3-3-33---5-5-5-5-55---|

|-------------------------------------------|
|-------------------------------------------|
|-------------------------------------------|
|---7---0---3---0---3-5-7-0---3---0---3-5---|
|---7---0---3---0---3-5-7-0---3---0---3-5---|
|---7---0---3---0---3-5-7-0---3---0---3-5---|

|-------------------|
|-------------------|
|-------------------|
|---3-3-3---5-5-5---|
|---3-3-3---5-5-5---|
|---3-3-3---5-5-5---|

Song Structure:
Main Riff:___4x
Verse 1:___12x
Verse 2:___1x
Verse 1:___7x
Main Riff:___4x
Verse 1:___16x
Verse 2:___1x
Main Riff:___4x
Riff 2:___1x
Main Riff:___4x


Song:     Wake Up
Tuning:   Drop D

Main Riff:
|------------------------------|
|------------------------------|
|------------------------------|
|---00-00-00-00-00-00-33-5\6---|
|---00-55-00-55-00-55-33-5\6---|
|---00-00-00-00-00-00-33-5\6---|
    ..    ..    ..
Fill:
|-------------------------|
|-------------------------|
|-------------------------|
|---6-0-6-0-6-0-6-0-3-5---|
|---6-0-6-0-6-0-6-0-3-5---|
|---6-0-6-0-6-0-6-0-3-5---|

Chorus:
     16x     16x      8x      8x      12x       4x
|-------|-------|-------|-------|--------|--------|
|-------|-------|-------|-------|---10---|--------|
|-------|-------|-------|-------|---9----|--------|
|---8---|---7---|---8---|---5---|---7----|---10---|
|---8---|---7---|---8---|---5---|---7----|---10---|
|---8---|---7---|---8---|---5---|---7----|---10---|

Solo:                      2x                           2x
|----------------------------|----------------------------|
|---10---------10-10---------|---13---------13-13---------|
|------11------------11------|------14------------14------|
|---------12------------12---|---------12------------12---|
|----------------------------|----------------------------|
|----------------------------|----------------------------| [2x]

|----------------------------|----------------------------|
|---15---------15-15---------|---13---------13-13---------|
|------15------------15------|------14------------14------|
|---------17------------17---|---------15------------15---|
|----------------------------|----------------------------|
|----------------------------|----------------------------|

|--------------------------------------------------|
|---10---------10-10------10---------10-10---------|
|------12------------12------12------------12------|
|---------12--------------------10------------10---|
|--------------------------------------------------|
|--------------------------------------------------|

Rythem Behind Solo:
|-----------------------|
|-----------------------|
|-----------------------|
|-----------------------|
|-----------------------|
|---000000000000305\6---|

Chorus 2:
     16x     16x      8x      8x      12x       4x
|-------|-------|-------|-------|--------|--------|
|-------|-------|-------|-------|--------|--------|
|-------|-------|-------|-------|--------|--------|
|---8---|---7---|---8---|---5---|---7----|---10---|
|---8---|---7---|---8---|---5---|---7----|---10---|
|---8---|---7---|---8---|---5---|---7----|---10---|

Song Structure:
Main Riff:___4X
Fill:___1X
Main Riff:___2X
Fill:___2X
Chorus:___2X
Main Riff:___2X
Fill:___1X
Main Riff:___2X
Chorus:___4X
Solo:___1X
Chorus:___1234
Main Riff:___1X

Song:     My World
Tuning:   Drop D

Main Riff:
|-------------------------------------|
|-------------------------------------|
|-------------------------------------|
|---3p0-00-000-0---3\-5-00-000-0000---|
|---3p0-00-0x0-0---3\-5-00-0x0-0x0x---|
|---3p0-00-000-0---3\-5-00-000-0000---|
        .. ... .        .. ... ....

Riff 2:
|---------------------|
|---------------------|
|---------------------|
|---12-11-8-7-10-10---|
|---12-11-8-7-10-10---|
|---12-11-8-7-10-10---|

Chorus:
|-----------------------------------------|
|-----------------------------------------|
|-----------------------------------------|
|---888888888888888-0-33333333-55555555---|
|---8x8x8x8x8x8x8x8-0-3x3x3x3x-5x5x5x5x---|
|---888888888888888-0-33333333-55555555---|

Pre-Solo: [Wah]
      16x      17x      16x      17x      16x       2x
|--------|--------|--------|--------|--------|--------|
|---10---|---13---|---10---|---13---|---10---|---12---|
|--------|--------|--------|--------|--------|--------|
|--------|--------|--------|--------|--------|--------|
|--------|--------|--------|--------|--------|--------|
|--------|--------|--------|--------|--------|--------|

       1x      13x       8x      12x       8x       8x       
|--------|--------|--------|--------|--------|--------|
|---10---|---13---|---10---|---12---|---13---|---15---|
|--------|--------|--------|--------|--------|--------|
|--------|--------|--------|--------|--------|--------|
|--------|--------|--------|--------|--------|--------|
|--------|--------|--------|--------|--------|--------|

|-----------------------|
|-----------------------|
|---12-14-15-17-19//0---|
|-----------------------|
|-----------------------|
|-----------------------|

Solo: [Wah]         3x
|---10----------------|---------------|
|------10-9---7-8-----|---7~---7------|
|-----------7-----7---|------7---7~---|
|---------------------|---------------|
|---------------------|---------------|
|---------------------|---------------|

Verse 1:
|--------------------|
|---10---9---3---3---|
|---7----6---0---0---|
|--------------------|
|--------------------|
|--------------------|

Verse 2:
|-------------------------------|
|---10---6---3----3---3-3-3-3---|
|---7----3---0----0---0-0-0-0---|
|-------------------------------|
|-------------------------------|
|-------------------------------|

Verse 3:
      16x     16x     32x
|--------|-------|-------|
|---10---|---9---|---3---|
|---7----|---6---|---0---|
|--------|-------|-------|
|--------|-------|-------|
|--------|-------|-------|

Chorus 2:
|-----------------------------------|
|-----------------------------------|
|-----------------------------------|
|---8-8-8-8-8-88-8-8-8-8-8-88-8-0---|
|---8-8-8-8-8-88-8-8-8-8-8-88-8-0---|
|---8-8-8-8-8-88-8-8-8-8-8-88-8-0---|
      .   .   ..   .   .   ..
|-----------------------------------|
|-----------------------------------|
|-----------------------------------|
|---3-3-3-3-3-33-5-55-5-5-5-5-5-0---|
|---3-3-3-3-3-33-5-55-5-5-5-5-5-0---|
|---3-3-3-3-3-33-5-55-5-5-5-5-5-0---|
      .   .   ..   ..   .   .
|-------------------------------------|
|-------------------------------------|
|-------------------------------------|
|---3p0-00-000-0---3\-5-00-000-0000---|
|---3p0-00-0x0-0---3\-5-00-0x0-0x0x---|
|---3p0-00-000-0---3\-5-00-000-0000---|
        .. ... .        .. ... ....

Ending Chord:
|-------|
|-------|
|-------|
|---0---|
|---0---|
|---0---|


Song Structure:
Main Riff:___12x
Riff 2:___1x
MAin Riff:___8x
Riff 2:___1x
Chorus:___1x
Main Riff:___1x
Chorus:___1x
Main Riff:___1x
Pre-Solo___1x
Solo:___1x
Main Riff:___4x
Riff 2:___1x
Chorus:___1x
Main Riff:___1x
Chorus:___1x
Main Riff:___1x
Riff 2:___1x
Verse 1:___1x
Verse 2:___1x
Verse 3:___3x
Riff 2:___1x
Chorus:___1x
Chorus:___1x
Repeat Chorus & Main Riff
until song ends
Ending Chord:___1x


Song:     Let Me Break
Tuning:   Drop D

Intro: [Played throughout parts of the song]
|----------------------------|
|----------------------------|
|-----7---9---7---7---5-----*|
|---5---7---5---7---7---7---*|
|----------------------------|
|----------------------------|

Clean Guitar:            9x
|--------------------------|
|--------------------------|
|--------------------------|
|--------------------------|
|---5---1---3---0---8--8---|
|---5---1---3---0---8--8---|

Main Riff:               2x
|--------------------------|
|--------------------------|
|--------------------------|
|---5---1---3---0---8--8---|
|---5---1---3---0---8--8---|
|---5---1---3---0---8--8---|

|-----------------------|
|-----------------------|
|-----------------------|
|---3---1---0---8-888---|
|---3---1---0---8-888---|
|---3---1---0---8-888---|

|-----------------------|
|-----------------------|
|-----------------------|
|---5---1---3---0---8---|
|---5---1---3---0---8---|
|---5---1---3---0---8---|

Clean Guitar:            6x
|--------------------------|
|--------------------------|
|--------------------------|
|--------------------------|
|---5---1---3---0---8--8---|
|---5---1---3---0---8--8---|

Main Riff:               2x
|--------------------------|
|--------------------------|
|--------------------------|
|---5---1---3---0---8--8---|
|---5---1---3---0---8--8---|
|---5---1---3---0---8--8---|

|-----------------------|
|-----------------------|
|-----------------------|
|---3---1---0---8-888---|
|---3---1---0---8-888---|
|---3---1---0---8-888---|

|-----------------------|
|-----------------------|
|-----------------------|
|---5---1---3---0---8---|
|---5---1---3---0---8---|
|---5---1---3---0---8---|

Riff 2:     4x                                          2x
|-------------|-----------------|-----------|-------------|
|-------------|-----------------|-----------|-------------|
|-------------|-----------------|-----------|-------------|
|-------------|-----------------|-----------|-------------|
|-------------|-----------------|-----------|-------------|
|---0-12-10---|---0-12-10\13~---|---12-10---|---0-12-10---|

|------------|-------------|
|------------|-------------|
|------------|-------------|
|------------|-------------|
|------------|-------------|
|---0-10-8---|---0-8-0-5---|

            4x                                          2x
|-------------|-----------------|-----------|-------------|
|-------------|-----------------|-----------|-------------|
|-------------|-----------------|-----------|-------------|
|-------------|-----------------|-----------|-------------|
|-------------|-----------------|-----------|-------------|
|---0-12-10---|---0-12-10\13~---|---12-10---|---0-12-10---|

|------------|-------------|
|------------|-------------|
|------------|-------------|
|------------|-------------|
|------------|-----8---5---|
|---0-10-8---|---0-8-0-5---|

Clean Guitar 2:
|---10----8----10-10\12---|---10-----8---------|
|------8----10------------|------8-8---10------|
|-------------------------|---------------10---|
|-------------------------|--------------------|
|-------------------------|--------------------|
|-------------------------|--------------------|

Solo:
|---10----8------10-10\12---|---10-----8----------|
|------8~----10~------------|------8-8---10~------|
|---------------------------|---------------10~---|
|---------------------------|---------------------|
|---------------------------|---------------------|
|---------------------------|---------------------|

Fill:
|-------|
|-------|
|-------|
|---7---|
|---7---|
|---7---|

Song Structure:
Intro:
Clean Guitar:___9x
Main Riff:___1x
Clean Guitar:___6x
Main Riff:___1x
Riff 2:___1x
Clean Guitar 2:___3x
Fill:___1x
Solo:___3x
Main Riff:___Played behind solo
Riff 2:___1x

Song:     Im My Tears
Tuning:   Drop D

Clean Guitar:
            2x            2x            2x            2x         
|-------5-----|-------5-----|-------5-----|-------5-----|
|-----5---5---|-----5---5---|-----5---5---|-----5---5---|
|-------------|-------------|-------------|-------------|
|-------------|-------------|-------------|-------------|
|---5---------|---4---------|---3---------|---2---------|
|-------------|-------------|-------------|-------------|

Fill:
|--------------|
|--------------|
|--------------|
|---0h3--0h3---|
|---0h3--0h3---|
|---0h3--0h3---|

Riff 1:
|-----------------------------------------------------|
|-----------------------------------------------------|
|-----------------------------------------------------|
|---12-12--12-12-12-12--12---11-11--11-11-11-11--11---|
|---12-12--12-x--12-x---12---11-11--11-x--11-x---11---|
|---12-12--12-12-12-12--12---11-11--11-11-11-11--11---|

|-----------------------------------------------------|
|-----------------------------------------------------|
|-----------------------------------------------------|
|---10-10--10-10-10-10--10---9-9--9-9---/3-0h3--0h3---|
|---10-10--10-x--10-x---10---9-9--9-x---/3-0h3--0h3---|
|---10-10--10-10-10-10--10---9-9--9-9---/3-0h3--0h3---|

Chorus:
|-----------------------------------------------|
|-----------------------------------------------|
|-----------------------------------------------|
|---12-0-0--12-0-0--12-0-0--12-0-0--12-0-12-0---|
|---12-0-0--12-0-0--12-0-0--12-0-0--12-0-12-0---|
|---12-0-0--12-0-0--12-0-0--12-0-0--12-0-12-0---|

|------------------------------------|
|------------------------------------|
|------------------------------------|
|---10-8-8--10-8-8--10-8--77779777---|
|---10-8-8--10-8-8--10-8--77779777---|
|---10-8-8--10-8-8--10-8--77779777---|

|-----------------------------------------------|
|-----------------------------------------------|
|-----------------------------------------------|
|---12-0-0--12-0-0--12-0-0--12-0-0--12-0-12-0---|
|---12-0-0--12-0-0--12-0-0--12-0-0--12-0-12-0---|
|---12-0-0--12-0-0--12-0-0--12-0-0--12-0-12-0---|

|------------------------------------|
|------------------------------------|
|------------------------------------|
|---10-8-8--10-8-8--10-8--33333333---|
|---10-8-8--10-8-8--10-8--33333333---|
|---10-8-8--10-8-8--10-8--33333333---|

Solo:

|---17-16-------------------------------|
|---------18--17-15-17------------------|
|----------------------16b^/14-14~-/7---|
|---------------------------------------|
|---------------------------------------|
|---------------------------------------|
             
|-----------------------------------------|
|---18-17-15-17---------------------------|
|---------------14------------------------|
|------------------14b^/12-12~//0-0\\12---|
|-----------------------------------------|
|-----------------------------------------|
                              ^ These parts are a little hard to hear
Clean Fill:                     but they are there.
|-------5-----|
|-----5---5---|
|-------------|
|-------------|
|---5---------|
|-------------|

Alternet Chorus:
|-----------------------------------------|
|-----------------------------------------|
|-----------------------------------------|
|---10-8-8--10-8-8-10-8-7-7-7-7-9-7-7-7---|
|---10-8-8--10-8-8-10-8-7-7-7-7-9-7-7-7---|
|---10-8-8--10-8-8-10-8-7-7-7-7-9-7-7-7---|

Song Structure:
Clean Guitar:___2x
Fill:___1x
Clean Guitar:___2x
Fill:___1x
Riff 1:___1x
Clean Guitar:___1x
Fill:___1x
Clean Guitar:___1x
Chorus:___2x
Solo:___2x
Fill:___1x
Clean Fill:___8x
Chorus:___3x
Alternet Chorus:___3x
Clean Guitar:___1x


Song:     Babe
Tuning:   Drop D

Intro: [Echo]
|-------------------|
|-------------------|
|---7-7-7-7-7-7-7---|
|---5-5-5-5-5-5-5---|
|-------------------|
|-------------------|
      
Verse 1:      2x
|---------------|-------------------------------------|
|---------------|-------------------------------------|
|---7---5---3---|---7---5---3--3-3-3-\7---5---3---3---|
|---5---3---1---|---5---3---1--1-1-1-\5---3---3---1---|
|---------------|-----------------------------1-------|
|---------------|-------------------------------------|

              2x
|---------------|-----------|
|---------------|-----------|
|---7---5---3---|---3---3---|
|---5---3---1---|---1---1---|
|---------------|-----------|
|---------------|-----------|

Chorus:
|-----------------------------------------|
|-----------------------------------------|
|-----------------------------------------|
|---00000000-11111111-55555555-33333333---|
|---00000000-11111111-55555555-33333333---|
|---00000000-11111111-55555555-33333333---|

Bridge:     
|---------------|
|---------------|
|---7---5---3---|
|---5---3---1---|
|---------------|
|---------------|

Solo: [Wah]
|--------------------------------------------|
|--------------------------------------------|
|---6-7b--6-7-6-6~-7--6-7-6-6b-3b----3b------|
|---------------------------------5b----1b---|
|--------------------------------------------|
|--------------------------------------------|

|---------------------------------------------|
|------------6\10-10~---5~--------------------|
|---6~-7~-6b----------4----3b-----------------|
|-----------------------------h5~-----0-1-3---|
|---------------------------------\\4---------|
|---------------------------------------------|

|--------------------------------------------|
|----------------------13-13~----13\15-15~---|
|---6~-7b-6h7\12-12\14--------14-------------|
|--------------------------------------------|
|--------------------------------------------|
|--------------------------------------------|

|----------------------------------|
|----------------------------------|
|-------5~---4~---2~-3~---2-3\5~---|
|---\\5----5----5-------5----------|
|----------------------------------|
|----------------------------------|

Verse 2:
|--------------------|
|--------------------|
|---7-7-7-xx-8-8-8---|
|---5-5-5-xx-6-6-6---|
|--------------------|
|--------------------|

Song Structure:
Intro:___1x
Verse:___1x
Main Riff:___1x
Bridge:___5x
Main Riff:___4x
Solo:___1x
Verse 2:___1x
Main Riff:___5x


Song:     New York Citu
Tuning:   Drop D

Gtr II:
|-----------------------------------------------------------------|
|-----------------------------------------------------------------|
|-------0-------------0-------------0-------------0-------0-------|
|-----1---1---3-----1---1---3-----0---0---3-----0---0-------0-----|
|---3-------3-----3-------3-----1-------1-----1-------1-------1---|
|-----------------------------------------------------------------| [4x]

Gtr II: [Echo]
|---------------|---------------|-------|
|---------------|---------------|-------|
|---------------|---------------|-------|
|---8---7---5---|---8---7---5---|---3---|
|---6---5---3---|---6---5---3---|---1---|
|---------------|---------------|-------|

Gtr I:
|---------------------------------------|
|---------------------------------------|
|---------------------------------------|
|---33xx3--33xx3--11xx1-11-\3-3-33-66---|
|---33xx3--33xx3--11xx1-11-\3-x-3x-6x---|
|---33xx3--33xx3--11xx1-11-\3-3-33-66---| [2x]

Gtr II:
|-----------------------------------------------------------------|
|-----------------------------------------------------------------|
|-------0-------------0-------------0-------------0-------0-------|
|-----1---1---3-----1---1---3-----0---0---3-----0---0-------0-----|
|---3-------3-----3-------3-----1-------1-----1-------1-------1---|
|-----------------------------------------------------------------| [2x]

Gtr I:
|-----------------------------------|
|-----------------------------------|
|-----------------------------------|
|---6-6-6-6-6-6--1-1-1--3-3-3-3-3---|
|---6-6-6-6-6-6--1-1-1--3-3-3-3-3---|
|---6-6-6-6-6-6--1-1-1--3-3-3-3-3---| [4x]

Gtr I:
|---------------------------------------|
|---------------------------------------|
|---------------------------------------|
|---33xx3--33xx3--11xx1-11-\3-3-33-66---|
|---33xx3--33xx3--11xx1-11-\3-x-3x-6x---|
|---33xx3--33xx3--11xx1-11-\3-3-33-66---| [2x]

Gtr II: [Echo]
|---------------|---------------|-------|
|---------------|---------------|-------|
|---------------|---------------|-------|
|---8---7---5---|---8---7---5---|---3---|
|---6---5---3---|---6---5---3---|---1---|
|---------------|---------------|-------|

Gtr I:
|-----------------------------------|
|-----------------------------------|
|-----------------------------------|
|---6-6-6-6-6-6--1-1-1--3-3-3-3-3---|
|---6-6-6-6-6-6--1-1-1--3-3-3-3-3---|
|---6-6-6-6-6-6--1-1-1--3-3-3-3-3---| [4x]

Solo: Gtr I [Wah]
|--------------------------------------------------|
|--------------------------------------------------|
|---10\12~-10b-10b-10b-10b-10b-10h12p10p8--10-8~---|
|--------------------------------------------------|
|--------------------------------------------------|
|--------------------------------------------------|

|--------------------8----------------------------|
|------------------8------------------------------|
|------8--10h12p10-------10h12p10p8--8h10p8-------|
|---10--------------------------------------10~---|
|-------------------------------------------------|
|-------------------------------------------------|

|--------------------------------------------------|
|---18\20-19b-20b-19b-20b-19p18p16----18-----------|
|----------------------------------17----17--/5~---|
|--------------------------------------------------|
|--------------------------------------------------|
|--------------------------------------------------|

|-------------------------------------|
|---18\20-18\20-18h20p18p15--18\20^---|
|-------------------------------------|
|-------------------------------------|
|-------------------------------------|
|-------------------------------------|

Gtr I:
|---------------------------------------|
|---------------------------------------|
|---------------------------------------|
|---33xx3--33xx3--11xx1-11-\3-3-33-66---|
|---33xx3--33xx3--11xx1-11-\3-x-3x-6x---|
|---33xx3--33xx3--11xx1-11-\3-3-33-66---| [2x]

Gtr II: Rythem Behind Solo
|-----------------------------------|
|-----------------------------------|
|-----------------------------------|
|---6-6-6-6-6-6--1-1-1--3-3-3-3-3---|
|---6-6-6-6-6-6--1-1-1--3-3-3-3-3---|
|---6-6-6-6-6-6--1-1-1--3-3-3-3-3---|

Gtr I:
|-----------------------------------|
|-----------------------------------|
|-----------------------------------|
|---6-6-6-6-6-6--1-1-1--3-3-3-3-3---|
|---6-6-6-6-6-6--1-1-1--3-3-3-3-3---|
|---6-6-6-6-6-6--1-1-1--3-3-3-3-3---| [8x]

Outro: Gtr I & Gtr II
|----------------------------|
|----------------------------|
|----------------------------|
|---6-6--\1---6-6--\1---/3---|
|---6-6--\1---6-6--\1---/3---|
|---6-6--\1---6-6--\1---/3---|


Song:     Resolution
Tuning:   Drop D

Main Riff:
|-------------------------------------|
|-------------------------------------|
|-------------------------------------|
|---4-5-4/-2\-4--4-5-4/-2\-4--2\444---|
|---4-5-4/-2\-4--4-5-4/-2\-4--2\4x4---|
|---4-5-4/-2\-4--4-5-4/-2\-4--2\444---|

Riff 2:
|---------------------------------------|
|---------------------------------------|
|---------------------------------------|
|---2\-4---2-2-2\-4---4\-5---4-4-4\-5---|
|---2\-4---2-2-2\-4---4\-5---4-4-4\-5---|
|---2\-4---2-2-2\-4---4\-5---4-4-4\-5---|

Rythem behind Riff 2: [Wah]
|-----------------------------------|
|-----------------------------------|
|-----------------------------------|
|---4-5-4/-2\4--4-5-4/-2\4--2\444---|
|-----------------------------------|
|-----------------------------------|

Chorus:      3x
|--------------|----------------------|
|--------------|----------------------|
|--------------|----------------------|
|---0---2-\4---|---5555555555555555---|
|---0---2-\4---|---5555555555555555---|
|---0---2-\4---|---5555555555555555---|

Solo: [Wah]
|----------------------------------7---------------7-6---------|
|-------------8-8-7----7-8-7---7-7---8/7\8-8-7---7-----8-7-----|
|-------------------9~-------9-----------------9-----------9---|
|--------------------------------------------------------------|
|--------------------------------------------------------------|
|---11\12~-----------------------------------------------------|

|---------------------------------------------------------------|
|---15~-17\19--19--19-19---19--19-19--19-19--19-19--19-19/17~---|
|---------------------------------------------------------------|
|---------------------------------------------------------------|
|---------------------------------------------------------------|
|---------------------------------------------------------------|

|----------------------| ? = Noise Gate 
|----------------------| if you don't have one
|---16--19\21?---18~---| you can improvies with
|----------------------| a tremelo.
|----------------------|

|----------------------------------------------|
|----------------------------------------------|
|---14-13--------------------------------------|
|---------11---9-7-6---4-6-7--7\9-9--11-///2---|
|----------------------------------------------|
|----------------------------------------------|

Outro:
|----------|
|----------|
|----------|
|---2\-4---|
|---2\-4---|
|---2\-4---|

Song Structure:
Main Riff:___4x
Riff 2:___2x
Chorus:___1x
Main Riff:___4x
Riff:___2x
Chorus:___1x
Main Riff:___8x
Riff:___2x
Solo:___1x
Main Riff:___8x
Outro:___1x


Song:     Temptation
Tuning:   Drop D

Ok...I don't have the clean Guitar parts
but you can find them on the other Temptation
Tabs.

Main Riff:
|-----------------------------------------|
|-----------------------------------------|
|-----------------------------------------|
|---44444444-77777777-77777777-22222222---|
|---22222222-55555555-77777777-22222222---|
|---------------------77777777-22222222---|

|-----------------------------------------|
|-----------------------------------------|
|-----------------------------------------|
|---44444444-77777777-55555555-22222222---|
|---22222222-55555555-55555555-22222222---|
|---------------------55555555-22222222---|

Rythem Behind Solo:
|--------------------------------------------------------|
|--------------------------------------------------------|
|--------------------------------------------------------|
|---99999999-12-12-12-12-12-12-12-12-77777777-99999999---|
|---99999999-12-12-12-12-12-12-12-12-77777777-99999999---|
|---99999999-12-12-12-12-12-12-12-12-77777777-99999999---|

|--------------------------------------------------------|
|--------------------------------------------------------|
|--------------------------------------------------------|
|---99999999-12-12-12-12-12-12-12-12-55555555-22222222---|
|---99999999-12-12-12-12-12-12-12-12-55555555-22222222---|
|---99999999-12-12-12-12-12-12-12-12-55555555-22222222---|

Solo:
|--------|------------------------------------------|
|---7~---|-----4\10-10-7/5-5-7----------------------|
|--------|---4-----------------6-7-7-9/7-7~-6~-4~---|
|--------|------------------------------------------|
|--------|------------------------------------------|
|--------|------------------------------------------|

Riff 2: [Wah] ^ = Wah Up
|--------------------------------------|
|--------------------------------------|
|-------------------------------------*|
|---00000-0000000000-444444-44444444--*|
|--------------------------------------|
|--------------------------------------|
    ^^^^^                   ^^^^^^^^
|--------------------------------------|
|--------------------------------------|
|--------------------------------------|
|--------------------------------------|
|---77777-7777777777-------------------|
|--------------------555555-55555555---|
    ^^^^^                   ^^^^^^^^

Ending Chord:
|-------|
|-------|
|-------|
|---5---|
|---5---|
|---5---|

Song Structure:
MAin Riff:___3x
Solo:___4x
Riff:___2x i think
Main Riff:___2x
Solo:___4x
Ending Chord:___1x


Song:     This Is What
Tuning:   Drop D

Main Riff:
|---------------------------------------------------------|
|---------------------------------------------------------|
|---------------------------------------------------------|
|---7-------8/7-------------8/7-------8/7-------5h6p5-----|
|---5-------6/5-------------6/5-------6/5-------------6---|
|-----00-00-----00-00-00-00-----00-00-----00-00-----------|
      .. ..     .. .. .. ..     .. ..     .. ..

Riff 2:
|-------------------------------------------------------|
|-------------------------------------------------------|
|-------------------------------------------------------|
|---------------------------------------------5h6p6-----|
|---5-------5-------5----5-------5-------5----------6---|
|---0-00-00-0-00-00-0-00-0-00-00-0-00-00-0-00-----------|
      .. ..   .. ..   ..   .. ..   .. ..   ..

Riff 3:
|---------------------------------------------------|
|---------------------------------------------------|
|---------------------------------------------------|
|---------------------------------------------------|
|---2-------2-------2----2-------2-------2----3-3---|
|---2-22-22-2-22-22-2-22-2-22-22-2-22-22-2-22-3-3---|
      .. ..   .. ..   ..   .. ..   .. ..   ..

Chorus:
|---------------------------------------------------------------|
|---------------------------------------------------------------|
|---------------------------------------------------------------|
|-------2-------3--3-3-----------------2-------3--3-3--7--7-7---|
|---5---2---5---3--3-3--5--5-5-----5---2---5---3--3-3--5--5-5---|
|---0---2---3---3--3-3--0--0-0-----0---2---3---3--3-3--0--0-0---|

Solo: [Wah]
|--------------------------------|
|---13h15----------9~-------8~---|
|--------------------------------|
|--------------------------------|
|--------------------------------|
|--------------------------------|

|-------------------------------------------------------|
|---------6-8h10p8h10-----------7-7-x-7-x---7-7-7-5/0---|
|---5-7-x-------------7-7-7-5/0-------------------------|
|-------------------------------------------------------|
|-------------------------------------------------------|
|-------------------------------------------------------|

|-----------------------------------------------------------------|
|---8h10p8-8h10p8-6h8-6---7-------6h8h10-8h10-6h8-----------------|
|-----------------------7---7-5-7---------------------------------|
|-------------------------------------------------5h7---7---------|
|-----------------------------------------------------------------|
|---------------------------------------------------------h10/0---|

|-------------------------13-15-15h17-15h17-17*---15-p13----------------|
|-------6-8h10-8h10---\15--------------------------------15-15h18-/15---|
|---5-7-----------------------------------------------------------------|
|-----------------------------------------------------------------------|
|-----------------------------------------------------------------------|
|-----------------------------------------------------------------------|

Outro:
|------------------------|
|------------------------|
|------------------------|
|------------------------|
|---0--0--0--0--0-0--0---|
|---0--0--0--0--0-0--0---|
    .  .  .  .  . .  .

Song Structure:

Intro:___1x
MAin Riff:___4x
Riff 2:___8x
Riff 3:___1x
Riff 2:___5x
Riff 3:___1x
Chorus:___1x
Solo:___1x
Chorus:___3x I think
Riff 3:___1x
Outor:___1x

Song:     You Can't Get Enough
Tuning:   Drop D

Verse 1:
|--------------------------------|
|--------------------------------|
|--------------------------------|
|---7---7-7777-7-/3-333-\10-10---|
|---7---7-7x7x-7-/3-3x3-\10-10---|
|---7---7-7777-7-/3-333-\10-10---|

|--------------------------------------|
|--------------------------------------|
|--------------------------------------|
|---7---7-7777-7-\12-12-12-12-\10-10---|
|---7---7-7x7x-7-\12-12-x--12-\10-10---|
|---7---7-7777-7-\12-12-12-12-\10-10---|

Verse 2:
|---8-5--10--12-10-8--7-7h8p5---12---|
|------------------------------------|
|------------------------------------|
|------------------------------------|
|------------------------------------|
|------------------------------------|

Chorus:
|------------------------------|
|------------------------------|
|------------------------------|
|---5---5-5555-5-/3-333-\7-7---|
|---5---5-5x5x-5-/3-3x3-\7-7---|
|---5---5-5555-5-/3-333-\7-7---|

|------------------------------------|
|------------------------------------|
|------------------------------------|
|---5---5-5555-5-\10-10-10-10-/7-7---|
|---5---5-5x5x-5-\10-10-x--10-/7-7---|
|---5---5-5555-5-\10-10-10-10-/7-7---|

Solo: I think this is right but if not you can figure it out easily.
|---8-5--8-8\12/8-12-12\14/12--17-15---8-5--12-10-8-\17/10-9--10---|
|------------------------------------------------------------------|
|------------------------------------------------------------------|
|------------------------------------------------------------------|
|------------------------------------------------------------------|
|------------------------------------------------------------------|

|-----------------------3----3----8-5--12-10-8-\17/10-8-10---|
|---6-8-6-5-3-1-3-5---5----5---------------------------------|
|-------------------3----3----3------------------------------|
|------------------------------------------------------------|
|------------------------------------------------------------|
|------------------------------------------------------------|

Song Structure:
Verse 1:___3x
Verse 2:___1
Chorus:___3x
Verse:___2x
Verse 2:___1x
Chorus:___2x
Solo:___1x
Chorus:___4x

Song:     Blood
Tuning:   Drop D

Riff 1: [Wah]
|------------------------------------------------------------------------|
|-----------12---12---12---12---12-12\17--12---12---12---12--------------|
|-------7*-----9----9----9----9--------------9----9----9----9-----7*-----|
|-----7*--7*----------------------------------------------------7*--7*---|
|---7*--------------------------------------------------------7*---------|
|------------------------------------------------------------------------|

Riff 2:
|-------------------------------|
|-------------------------------|
|-------------------------------|
|---5---5-8-9-8-2-----2-----2---|
|---5---5-8-9-8-2-----2-----2---|
|---5-5-5-8-9-8-2--22-2-222-2---|
      .            ..   ...

Chorus:
|--------------------|--------------------|
|--------------------|--------------------|
|--------------------|--------------------|
|---5---5-8-9-8------|---5---5-8-9-8--2---|
|---5---5-8-9-8--5---|---5---5-8-9-8--2---|
|---5-5-5-8-9-8--0---|---5-5-5-8-9-8--2---|
      .                    .

|--------------------|--------------------|
|--------------------|--------------------|
|--------------------|--------------------|
|---5---5-8-9-8------|---5---5-8-9-8--7---|
|---5---5-8-9-8--5---|---5---5-8-9-8--7---|
|---5-5-5-8-9-8--0---|---5-5-5-8-9-8--7---|
      .                    .

Pre-Solo:
|---12---12-12---|
|----------------|
|----------------|
|----------------|
|----------------|
|----------------|

Solo: [Wah]
|---9^-9-7-9^-7^--7-9-10-9--7-9h10p9p7---|
|----------------------------------------|
|----------------------------------------|
|----------------------------------------|
|----------------------------------------|
|----------------------------------------| 

Verse 1:
|--------------------------|
|-----0---1---0---0----0---|
|--------------------------|
|---2---2---2---2----2-----|
|--------------------------|
|--------------------------|

OUtro:             1x
|--------------------|-------|
|--------------------|-------|
|--------------------|-------|
|---5---5-8-9-8------|---2---|
|---5---5-8-9-8--5---|---2---|
|---5-5-5-8-9-8--0---|---2---|
      .

Song Structure:
Riff 1:___1x
Riff 2:___4x
Riff 1:___1x
Riff 2:___2x
Chorus:___1x
Pre-Solo:___1x
Solo:___3x
Verse 1:___8x
Riff 2:___2x
Chjorus:___1x
Riff 2:___3x
Outro:___1x


Song:     Help Me
Tuning:   Drop D

Verse 1:
|---------------------------------|
|-------10-8-----------8---10-----|
|---7-7--------------7---7----7---|
|------------10-9-10--------------|
|---------------------------------|
|---------------------------------|

Verse 2:
|---------------------|
|---------------------|
|-------7-------7-----|
|-----5-------7-------|
|---5-------5-----5---|
|---------------------|

Riff 1:
|-------------------------------------|
|-------8h10-8-----------8-8h10-8-----|
|---7-7----------------7----------7---|
|--------------10-9-10----------------|
|-------------------------------------|
|-------------------------------------|

Riff 2:                    3x
|----------------------------|----------------------|
|----------------------------|----------------------|
|---------------------------*|----------------------|
|---55555555-3-3--8-10-8-0--*|---55555555-3-3-5-5---|
|---55555555-3-3--8-10-8-0---|---55555555-3-3-5-5---|
|---55555555-3-3--8-10-8-0---|---55555555-3-3-5-5---|

Chorus:
|------------------------------------------|
|------------------------------------------|
|------------------------------------------|
|---8888888-7-00000000-55555555-33333333---|
|---8888888-7-00000000-55555555-33333333---|
|---8888888-7-00000000-55555555-33333333---|

|------------------------------------------|
|------------------------------------------|
|------------------------------------------|
|---8888888-7-00000000-55555555-77777777---|
|---8888888-7-00000000-55555555-77777777---|
|---8888888-7-00000000-55555555-77777777---|

Riff 3:
|--------------|
|--------------|
|--------------|
|---77777777---|
|---55555555---|
|--------------|

|---------------------------|
|---------------------------|
|---------------------------|
|---------------------------|
|---77777777-3-3-8\10/8-0---|
|---55555555-3-3-8\10/8-0---|
|------------3-3-8\10/8-0---|

Outro:
|----------------------|
|-------10-9-----------|
|---7-7----------------|
|------------10-9-7/---|
|----------------------|
|----------------------|

Song Structure:
Verse 1:___4x
Verse 2:___4x
Riff 1:___2x
Riff 2:___1x
Verse 1:___2x
Verse 2:___4x
Riff 1:___2x
Riff 2:___4x
Chorus:___1x
Riff 3:___1x
Riff 2:___2x
Outro:___1x

Well there it is the 1st Emigrate Album Tab. Please Rate
Suggest correction
Creating personal tab
Creating personal tab
You can edit any tab online and save it as your Personal.

You can edit, replace or remove any tab part or add personal notes – all changes will be seen only by you.

Personal tabs can be accessed anytime from any device, even offline.
Learn more »
Give kudos to tab author, rate the tab!
1 2 3 4 5
comments
print report bad tab
guest
You may want to rate the tab now too:
select rating
Wanna post a correction for this tab? Suggest correction