Oops, an error
Loading. Please wait.

Emigrate tab

version 1
version 1

Whole song

Interactive

2,990 views 1 this week
no commentswrite comment
1 2 3 4 5
x 3
add to favorites
×
Save as Personal and add changes to this tab that will be seen only by you. Learn more ›
×
You can save this tab as Personal to edit and correct it or add notes. All changes will be seen only by you. Learn more »
launch autoscroll
font size
0
reset
how to read this tab
guitar tuner
backing track
0:00
0:00
edit
Autoscroll
slow
fast
+/-
esc
set tempo
stop
The title track from a great album by rammstein guitarist Richard Kruspe. easy but badass song. 

Submitted by fattboy04@aol.com

Band: Emigrate
Song: Emigrate
Album: Emigrate

Drop C
Guitar 1 & 2 arent exactly timed together right.
intro
keyboard thing untill 0:13 then
MAIN RIFF
Guitar 1
D|-------------------------------|---------------------------------|
A|-------------------------------|---------------------------------|
F|-------------------------------|---------------------------------|
C|---3---------------------------|---------------------------------|x4
G|-5---5-3-----5-----5-----5---5-|-3-5-6-5-2-----5-----5-----5---5-|
C|---------0-0-0-0-0-0-0-0-0-0-0-|-----------0-0-0-0-0-0-0-0-0-0-0-|
palm mute  * *   * *   * *   *               * *   * *   * *   *

Guitar 2
D|--------------------------------------------------------|
A|--------------------------------------------------------|
F|-14~~~~~~~~-17--15~~~~~~~~-17--12~~~~~~~~-14--7~~~~~~~~-|
C|--------------------------------------------------------|x4
G|-12~~~~~~~~-15--13~~~~~~~~-15--10~~~~~~~~-12--5~~~~~~~~-|
C|--------------------------------------------------------|

VERSE
D|-----------------|
A|-----------------|
F|-----------------|
C|-----------------|x12
G|---5-----5---5---|
C|-0-0-0-0-0-0-0-0-|
pm *   * *   *   *

Verse Pt 2
Guitar 1
D|-----------------|-----------------|-----------------|-----------------|
A|-----------------|-----------------|-----------------|-----------------|
F|-----------------|-----------------|-----------------|-----------------|
C|-----------------|-----------------|---1-----1---1---|---1-----1---1---|
G|---5-----5---5---|---5-----5---5---|---1-----1---1---|---1-----1---1---|
C|-0-0-0-0-0-0-0-0-|-0-0-0-0-0-0-0-0-|-1-1-1-1-1-1-1-1-|-1-1-1-1-1-1-1-1-|
pm *   * *   *   *   *   * *   *   *   *   * *   *   *   *   * *   *   *

D|-----------------|-----------------|-----------------|-----------------|
A|-----------------|-----------------|-----------------|-----------------|
F|-----------------|-----------------|-----------------|-----------------|
C|---3-----3---3---|---3-----3---3---|-----------------|-----------------|
G|---3-----3---3---|---3-----3---3---|---5-----5---5---|---5-----5---5---|
C|-3-3-3-3-3-3-3-3-|-3-3-3-3-3-3-3-3-|-0-0-0-0-0-0-0-0-|-0-0-0-0-0-0-0-0-|
   *   * *   *   *   *   * *   *   *   *   * *   *   *   *   * *   *   *

Guitar 2
D|---------8~---------8~------|---------8~---------8~------|
A|---10~--------10~--------10~|---11~--------11~--------11~|
F|-7-----7----7-----7----7----|-8-----8----8-----8----8----|
C|----------------------------|----------------------------|
G|----------------------------|----------------------------|
C|----------------------------|----------------------------|

D|---5~----8~---5~----8~---5~-|---------8~---------8~------|
A|----------------------------|---7~---------7~---------7~-|
F|-5-----5----5-----5----5----|-7-----7----7-----7----7----|
C|----------------------------|----------------------------|
G|----------------------------|----------------------------|
C|----------------------------|----------------------------|

Then:
VERSE
D|-----------------|
A|-----------------|
F|-----------------|
C|-----------------|x7
G|---5-----5---5---|
C|-0-0-0-0-0-0-0-0-|
pm *   * *   *   *



MAIN RIFF
Guitar 1
D|-------------------------------|---------------------------------|
A|-------------------------------|---------------------------------|
F|-------------------------------|---------------------------------|
C|---3---------------------------|---------------------------------|x4
G|-5---5-3-----5-----5-----5---5-|-3-5-6-5-2-----5-----5-----5---5-|
C|---------0-0-0-0-0-0-0-0-0-0-0-|-----------0-0-0-0-0-0-0-0-0-0-0-|
palm mute  * *   * *   * *   *               * *   * *   * *   *

Guitar 2
D|--------------------------------------------------------|
A|--------------------------------------------------------|
F|-14~~~~~~~~-17--15~~~~~~~~-17--12~~~~~~~~-14--7~~~~~~~~-|
C|--------------------------------------------------------|x4
G|-12~~~~~~~~-15--13~~~~~~~~-15--10~~~~~~~~-12--5~~~~~~~~-|
C|--------------------------------------------------------|


VERSE
D|-----------------|
A|-----------------|
F|-----------------|
C|-----------------|x16
G|---5-----5---5---|
C|-0-0-0-0-0-0-0-0-|
pm *   * *   *   *

Guitar 1
D|-----------------|-----------------|-----------------|-----------------|
A|-----------------|-----------------|-----------------|-----------------|
F|-----------------|-----------------|-----------------|-----------------|
C|-----------------|-----------------|---1-----1---1---|---1-----1---1---|
G|---5-----5---5---|---5-----5---5---|---1-----1---1---|---1-----1---1---|
C|-0-0-0-0-0-0-0-0-|-0-0-0-0-0-0-0-0-|-1-1-1-1-1-1-1-1-|-1-1-1-1-1-1-1-1-|
pm *   * *   *   *   *   * *   *   *   *   * *   *   *   *   * *   *   *

D|-----------------|-----------------|-----------------|-----------------|
A|-----------------|-----------------|-----------------|-----------------|
F|-----------------|-----------------|-----------------|-----------------|
C|---3-----3---3---|---3-----3---3---|-----------------|-----------------|
G|---3-----3---3---|---3-----3---3---|---5-----5---5---|---5-----5---5---|
C|-3-3-3-3-3-3-3-3-|-3-3-3-3-3-3-3-3-|-0-0-0-0-0-0-0-0-|-0-0-0-0-0-0-0-0-|
   *   * *   *   *   *   * *   *   *   *   * *   *   *   *   * *   *   *

Guitar 2
D|---------8~---------8~------|---------8~---------8~------|
A|---10~--------10~--------10~|---11~--------11~--------11~|
F|-7-----7----7-----7----7----|-8-----8----8-----8----8----|
C|----------------------------|----------------------------|
G|----------------------------|----------------------------|
C|----------------------------|----------------------------|

D|---5~----8~---5~----8~---5~-|---------8~---------8~------|
A|----------------------------|---7~---------7~---------7~-|
F|-5-----5----5-----5----5----|-7-----7----7-----7----7----|
C|----------------------------|----------------------------|
G|----------------------------|----------------------------|
C|----------------------------|----------------------------|

Then directly to:
MAIN RIFF
Guitar 1
D|-------------------------------|---------------------------------|
A|-------------------------------|---------------------------------|
F|-------------------------------|---------------------------------|
C|---3---------------------------|---------------------------------|x4
G|-5---5-3-----5-----5-----5---5-|-3-5-6-5-2-----5-----5-----5---5-|
C|---------0-0-0-0-0-0-0-0-0-0-0-|-----------0-0-0-0-0-0-0-0-0-0-0-|
palm mute  * *   * *   * *   *               * *   * *   * *   *

Guitar 2
D|--------------------------------------------------------|
A|--------------------------------------------------------|
F|-14~~~~~~~~-17--15~~~~~~~~-17--12~~~~~~~~-14--7~~~~~~~~-|
C|--------------------------------------------------------|x4
G|-12~~~~~~~~-15--13~~~~~~~~-15--10~~~~~~~~-12--5~~~~~~~~-|
C|--------------------------------------------------------|


Interlude type thing...
D|---------------------------|---------------------------------|
A|---------------------------|---------------------------------|
F|---------------------------|---------------------------------|
C|-3--3--3~~----5--5--5~~~---|-7--0--3--0--3-5-7--0--3--0--3-5-|
G|-3--3--3~~----5--5--5~~~---|-7--0--3--0--3-5-7--0--3--0--3-5-|
C|-3--3--3~~----5--5--5~~~---|-7--0--3--0--3-5-7--0--3--0--3-5-|

D|---------------------------|
A|---------------------------|
F|---------------------------|
C|-3--3--3~~----5--5--5~~~---|
G|-3--3--3~~----5--5--5~~~---|
C|-3--3--3~~----5--5--5~~~---|

MAIN RIFF
Guitar 1
D|-------------------------------|---------------------------------|
A|-------------------------------|---------------------------------|
F|-------------------------------|---------------------------------|
C|---3---------------------------|---------------------------------|x4
G|-5---5-3-----5-----5-----5---5-|-3-5-6-5-2-----5-----5-----5---5-|
C|---------0-0-0-0-0-0-0-0-0-0-0-|-----------0-0-0-0-0-0-0-0-0-0-0-|
palm mute  * *   * *   * *   *               * *   * *   * *   *

Guitar 2
D|--------------------------------------------------------|
A|--------------------------------------------------------|
F|-14~~~~~~~~-17--15~~~~~~~~-17--12~~~~~~~~-14--7~~~~~~~~-|
C|--------------------------------------------------------|x4
G|-12~~~~~~~~-15--13~~~~~~~~-15--10~~~~~~~~-12--5~~~~~~~~-|
C|--------------------------------------------------------|


Thats it. hope u guys like it. i love the whole cd and can play pretty much every song. =D

            
            
Suggest correction
Creating personal tab
Creating personal tab
You can edit any tab online and save it as your Personal.

You can edit, replace or remove any tab part or add personal notes – all changes will be seen only by you.

Personal tabs can be accessed anytime from any device, even offline.
Learn more »
Give kudos to tab author, rate the tab!
1 2 3 4 5
comments
print report bad tab
guest
You may want to rate the tab now too:
select rating
Wanna post a correction for this tab? Suggest correction