Oops, an error
Loading. Please wait.

I Have A Dream tab

version 1
version 1

Whole song

Interactive

3,441 views 3 this week
no commentswrite comment
1 2 3 4 5
1 last vote to show rating
add to favorites
×
Save as Personal and add changes to this tab that will be seen only by you. Learn more ›
×
You can save this tab as Personal to edit and correct it or add notes. All changes will be seen only by you. Learn more »
launch autoscroll
font size
0
reset
how to read this tab
guitar tuner
edit
Autoscroll
slow
fast
+/-
esc
set tempo
stop
Artist: Emigrate
Song: I have a dream
Album: Temptation Single (2008)

Drop D

Intro:

Guitar 1
E|-----------------------------------------------|
B|--8-11-10-8-10~--8-11-10-8-10~--8-11-10-8~-----|
G|-----------------------------------------------|
D|-----------------------------------------------|
A|-----------------------------------------------|
D|-----------------------------------------------| 

Guitar 2
E|-----------------------------------------------|
B|-----------------------------------------------|
G|-----------------------------------------------|
D|-----------------------------------------------|
A|-----------------------------------------------|
D|--2-2-2-2-2-2-2-2-2-2-2-2-2-2-2-2-2-2-2-2-2-2--| 



Guitar 1
E|-----------------------------------------------|
B|--10-13-12-10-12~-10-13-12-10-12~-10-13-12-10~-|
G|-----------------------------------------------|
D|-----------------------------------------------|
A|-----------------------------------------------|
D|-----------------------------------------------| 

Guitar 2
E|-----------------------------------------------|
B|-----------------------------------------------|
G|-----------------------------------------------|
D|-----------------------------------------------|
A|-----------------------------------------------|
D|--3-3-3-3-3-3-3-3-3-3-3-0-0-0-0-0-0-0-0-0-0-0--| 


Main Riff:

Guitar 1 ----> Intro

Guitar 2
E|--------------------------------------------------------------------|
B|--------------------------------------------------------------------|
G|--------------------------------------------------------------------|
D|--2-5-4-2-4~-2-5-4-2-4~-2-5-4-2~--4-7-6-4-6~-4-7-6-4-6~-4-7-6-4~----|
A|--2-5-4-2-4~-2-5-4-2-4~-2-5-4-2~--4-7-6-4-6~-4-7-6-4-6~-4-7-6-4~----|
D|--2-5-4-2-4~-2-5-4-2-4~-2-5-4-2~--4-7-6-4-6~-4-7-6-4-6~-4-7-6-4~----|

end of the main riff: B|--5~~~~~~~~~---|


Chorus:

Both Guitars
E|-----------|
B|-----------|
G|-----------|
D|--1/7~~~---|
A|--1/7~~~---|
D|--1/7~~~---| 


Guitar 1
E|-----------------------------------------------|
B|-----------------------------------------------|
G|-----------------------------------------------|
D|--2-2-2-2-2-2-2-2-2-2-2-2-2-2-2-2-2-2-2-2-2-2--|
A|--2-2-2-2-2-2-2-2-2-2-2-2-2-2-2-2-2-2-2-2-2-2--|
D|--2-2-2-2-2-2-2-2-2-2-2-2-2-2-2-2-2-2-2-2-2-2--| 

E|-----------------------------------------------|
B|-----------------------------------------------|
G|-----------------------------------------------|
D|--3-3-3-3-3-3-3-3-3-3-3-0-0-0-0-0-0-0-0-0-0-0--|
A|--3-3-3-3-3-3-3-3-3-3-3-0-0-0-0-0-0-0-0-0-0-0--|
D|--3-3-3-3-3-3-3-3-3-3-3-0-0-0-0-0-0-0-0-0-0-0--| 

Guitar 2 -----> Main Riff

Bridge:

Both Guitars
E|-------------------------------------------------------------|
B|---5~~~~~~~-5/7-7~~~~~~~-7/9-9~~~~~~~-9/11-11~~~~~~~-/2------|
G|-------------------------------------------------------------|
D|-------------------------------------------------------------|
A|-------------------------------------------------------------|
D|-------------------------------------------------------------| 

End:  B|--5~~~~~~~~~---|



Lyrics:

It's getting dark
Gotta close my eyes now
Going far don't know where to find you
Gonna take everything I can now
Gonna make my dreams rise up and stand
I've had a taste, gotta feed my hungeer
Socialite desire's goin' further

Can you feel me? 
Can you see me?
Can you hear me?

I have a dream (dream)
A dream I'm going somewhere
I have a dream (dream)
A dream that masses will share
I have a dream (dream)
A dream I'm going somewhere
I have a dream
I have a dream

I see a light it's time for me to wake up
And I have sight, gotta start to shake up
Profathic thoughts feel me realise
Gonna make my dreams rise up and stand
I've got to will this, in the dark
I have got to fill this, make my mark

Can you feel me? 
Can you see me?
Can you hear me?

I have a dream (dream)
A dream I'm going somewhere
I have a dream (dream)
A dream that masses will share
I have a dream (dream)
A dream I'm going somewhere
I have a dream
I have a dream

Loving father put away
All the wrongs I have done today
Make me sorry true and good
Make me love me as I should
Make me love me as I should
Make me love me as I should

I have a dream (dream)
A dream I'm going somewhere
I have a dream (dream)
A dream that masses will share
I have a dream (dream)
A dream I'm going somewhere
I have a dream
I have a dream
I have a dream



have fun ;)
Suggest correction
Creating personal tab
Creating personal tab
You can edit any tab online and save it as your Personal.

You can edit, replace or remove any tab part or add personal notes – all changes will be seen only by you.

Personal tabs can be accessed anytime from any device, even offline.
Learn more »
Give kudos to tab author, rate the tab!
1 2 3 4 5
comments
print report bad tab
guest
You may want to rate the tab now too:
select rating
Wanna post a correction for this tab? Suggest correction