Oops, an error
Loading. Please wait.

My World tab

version 2
version 2

Whole song

Interactive

10,324 views 6 this week
5 commentsread comments
1 2 3 4 5
x 8
add to favorites
×
Save as Personal and add changes to this tab that will be seen only by you. Learn more ›
×
You can save this tab as Personal to edit and correct it or add notes. All changes will be seen only by you. Learn more »
launch autoscroll
font size
0
reset
how to read this tab
guitar tuner
edit
Autoscroll
slow
fast
+/-
esc
set tempo
stop
tabbed by: MenschBrennt
dropC tunning

Riff1 se repite/repeat x12
d||------------------------------|
A||------------------------------|
F||------------------------------|
C||--3----------3--5-------------|
G||--3----------3--5-------------|
C||--3--0-0-000-3--5-0-0-000-000-|

d||----------------------------|
A||----------------------------|
F||----------------------------|
C||--12---11---8---7---10--10--|
G||--12---11---8---7---10--10--|
C||--12---11---8---7---10--10--|

Coro/Chorus
d||----------------------------------|----------------------------------|
A||----------------------------------|----------------------------------|
F||----------------------------------|----------------------------------|
C||--8-8-8-8-8-8-8-8-8-8-8-8-8-8-8-8-|--3-3-3-3-3-3-3-3-5-5-5-5-5-5-5-5-|
G||--8-8-8-8-8-8-8-8-8-8-8-8-8-8-8-8-|--3-3-3-3-3-3-3-3-5-5-5-5-5-5-5-5-|
C||--8-8-8-8-8-8-8-8-8-8-8-8-8-8-8-8-|--3-3-3-3-3-3-3-3-5-5-5-5-5-5-5-5-|

Solo
d||--------------------------------------|---------------------|
A||--------------------------------------|---------------------|
F||--------------------------------------|---------------------|
C||--7////-9////-7////-9////-7////-9////-|--12--14--15--17--19-|...?
G||--------------------------------------|---------------------|
C||--------------------------------------|---------------------|





http://menschbrennt.blogspot.com

            
            
Suggest correction
Creating personal tab
Creating personal tab
You can edit any tab online and save it as your Personal.

You can edit, replace or remove any tab part or add personal notes – all changes will be seen only by you.

Personal tabs can be accessed anytime from any device, even offline.
Learn more »
comments
print report bad tab
5 comments total. Showing first comments.
0 reply
R+mensch 122 Jun 24, 2007 02:41 PM

great tab, the tunning is correct and riff is 10% exact, GOD JOB MAN!!!!!

0 reply
aga301 10 Aug 17, 2007 11:45 AM

awesome dude

0 reply
Rammkopf 10 Dec 12, 2007 02:32 AM

's OK. Just finish the solo. ;o) 4 stars, man! :o)

guest
Wanna post a correction for this tab? Suggest correction