Oops, an error
Loading. Please wait.

My World tab

version 3
version 3

Whole song

Interactive

5,326 views 6 this week
4 commentsread comments
1 2 3 4 5
x 4
add to favorites
×
Save as Personal and add changes to this tab that will be seen only by you. Learn more ›
×
You can save this tab as Personal to edit and correct it or add notes. All changes will be seen only by you. Learn more »
launch autoscroll
font size
0
reset
how to read this tab
guitar tuner
edit
Autoscroll
slow
fast
+/-
esc
set tempo
stop
analog, here with the song "My World" from Emigrate. The tunning I chose is one step 
than drop D (C-G-C-F-A-D). And here you go:

-------------------------------------------|
-------------------------------------------|
-------------------------------------------|
-3-0-0-0-0-0-0-3-5-0-0-0-0-0-0-0-0---------|
-3-0-0-0-0-0-0-3-5-0-0-0-0-0-0-0-0---------|
-3-0-0-0-0-0-0-3-5-0-0-0-0-0-0-0-0---------|
   . . . . . .     . . . . . . . .

-------------------------------------------|
-------------------------------------------|
-------------------------------------------|
-12-11-\8-7-/10-10-------------------------|
-12-11-\8-7-/10-10-------------------------|
-12-11-\8-7-/10-10-------------------------|

-------------------------------------------|
-------------------------------------------|
-------------------------------------------|
-8-8-8-8-8-8-8-8-8-8-8-8-8-8-8-0-----------|
-8-8-8-8-8-8-8-8-8-8-8-8-8-8-8-0-----------|
-8-8-8-8-8-8-8-8-8-8-8-8-8-8-8-0-----------|

-------------------------------------------|
-------------------------------------------|
-------------------------------------------|
-3-3-3-3-3-3-3-3-5-5-5-5-5-5-5-5-----------|
-3-3-3-3-3-3-3-3-5-5-5-5-5-5-5-5-----------|
-3-3-3-3-3-3-3-3-5-5-5-5-5-5-5-5-----------|

[Solo with wah]


-----------------------------------------------------------------------------|
-/10-10-10-10-10-10-10-10-10-10-10-10-10-10-10-10----------------------------|
-----------------------------------------------------------------------------|
-----------------------------------------------------------------------------|
-----------------------------------------------------------------------------|
-----------------------------------------------------------------------------|


-----------------------------------------------------------------------------|
-13-13-13-13-13-13-13-13-13-13-13-13-13-13-13-13-----------------------------|
-----------------------------------------------------------------------------|
-----------------------------------------------------------------------------|
-----------------------------------------------------------------------------|
-----------------------------------------------------------------------------|


-----------------------------------------------------------------------------|
-13-10-10-10-10-10-10-10-10-10-10-10-10-10-10-10-10--------------------------|
-----------------------------------------------------------------------------|
-----------------------------------------------------------------------------|
-----------------------------------------------------------------------------|
-----------------------------------------------------------------------------|


-----------------------------------------------------------------------------|
-13-13-13-13-13-13-13-13-13-13-13-13-13-13-13-13-----------------------------|
-----------------------------------------------------------------------------|
-----------------------------------------------------------------------------|
-----------------------------------------------------------------------------|
-----------------------------------------------------------------------------|


-----------------------------------------------------------------------------|
-13-10-10-10-10-10-10-10-10-10-10-10-10-10-10-10-10--------------------------|
-----------------------------------------------------------------------------|
-----------------------------------------------------------------------------|
-----------------------------------------------------------------------------|
-----------------------------------------------------------------------------|


-----------------------------------------------------------------------------|
-12-12-10-13-13-13-13-13-13-13-13-13-13-13-13-13-----------------------------|
-----------------------------------------------------------------------------|
-----------------------------------------------------------------------------|
-----------------------------------------------------------------------------|
-----------------------------------------------------------------------------|


-10-10-10-10-10-10-10-10-12-12-12-12-12-12-12-12-----------------------------|
-----------------------------------------------------------------------------|
-----------------------------------------------------------------------------|
-----------------------------------------------------------------------------|
-----------------------------------------------------------------------------|
-----------------------------------------------------------------------------|


-13-13-13-13-13-13-13-13-15-15-15-15-15-15-15-15-17/-------------------------|
-----------------------------------------------------------------------------|
-----------------------------------------------------------------------------|
-----------------------------------------------------------------------------|
-----------------------------------------------------------------------------|
-----------------------------------------------------------------------------|


------------10-----------10----------------------------------------------------|
--10-9-7-8-----10-9-7-8----10-9-7-8--7~-7-7~-----------------------------------|
-7----7---7-7------7---7-7-----7---7-----7-------------------------------------|
-------------------------------------------------------------------------------|
-------------------------------------------------------------------------------|
-------------------------------------------------------------------------------|


-------------------------------------------|
-10~---9~----3~----3~----------------------|
-------------------------------------------|
-7~----6~----0~----0~----------------------|
-------------------------------------------|
-------------------------------------------|

-------------------------------------------|
-10~----6--8~--6--3~---3~--3-3-3-3---------|
-------------------------------------------|
-7~-----3--5~--3--0~---0~--0-0-0-0---------|
-------------------------------------------|
-------------------------------------------|

(Same thing but hit each note 16 times)
-------------------------------------------|
-10---9----3----3--------------------------|
-------------------------------------------|
-7----6----0----0--------------------------|
-------------------------------------------|
-------------------------------------------|


-------------------------------------------|
-------------------------------------------|
-------------------------------------------|
-12-11-\8-7-/10-10-------------------------|
-12-11-\8-7-/10-10-------------------------|
-12-11-\8-7-/10-10-------------------------|


-------------------------------------------|
-------------------------------------------|
-------------------------------------------|
-8-8-8-8-8-8-8-8-8-8-8-8-8-8-8-0-----------|
-8-8-8-8-8-8-8-8-8-8-8-8-8-8-8-0-----------|
-8-8-8-8-8-8-8-8-8-8-8-8-8-8-8-0-----------|
   .   .   . .   .   .   . .


-------------------------------------------|
-------------------------------------------|
-------------------------------------------|
-3-3-3-3-3-3-3-5-5-5-5-5-5-5-5-0-----------|
-3-3-3-3-3-3-3-5-5-5-5-5-5-5-5-0-----------|
-3-3-3-3-3-3-3-5-5-5-5-5-5-5-5-0-----------|
   .   .   . .   . .   .   .


-------------------------------------------|
-------------------------------------------|
-------------------------------------------|
-3-0-0-0-0-0-0-3-5-0-0-0-0-0-0-0-0---------|
-3-0-0-0-0-0-0-3-5-0-0-0-0-0-0-0-0---------|
-3-0-0-0-0-0-0-3-5-0-0-0-0-0-0-0-0---------|
   . . . . . .     . . . . . . . .

-------------------------------------------|
-------------------------------------------|
-------------------------------------------|
-8-8-8-8-8-8-8-8-8-8-8-8-8-8-8-0-----------|
-8-8-8-8-8-8-8-8-8-8-8-8-8-8-8-0-----------|
-8-8-8-8-8-8-8-8-8-8-8-8-8-8-8-0-----------|

-------------------------------------------|
-------------------------------------------|
-------------------------------------------|
-3-3-3-3-3-3-3-3-5-5-5-5-5-5-5-5-----------|
-3-3-3-3-3-3-3-3-5-5-5-5-5-5-5-5-----------|
-3-3-3-3-3-3-3-3-5-5-5-5-5-5-5-5-----------|


-------------------------------------------|
-------------------------------------------|
-------------------------------------------|
-3-0-0-0-0-0-0-0-0-3-5-0-0-0-0-0-0-0-0-----|
-3-0-0-0-0-0-0-0-0-3-5-0-0-0-0-0-0-0-0-----|
-3-0-0-0-0-0-0-0-0-3-5-0-0-0-0-0-0-0-0-----|
   . . . . . . . .     . . . . . . . .


[Outro 3:57]
-------------------------------------------|
-------------------------------------------|
-------------------------------------------|
-8-8-8-8-8-8-8-8-8-8-8-8-8-8-8-------------|
-8-8-8-8-8-8-8-8-8-8-8-8-8-8-8-------------|
-8-8-8-8-8-8-8-8-8-8-8-8-8-8-8-------------|

-------------------------------------------|
-------------------------------------------|
-------------------------------------------|
-3-3-3-3-3-3-3-3-5-5-5-5-5-5-5-5-----------|
-3-3-3-3-3-3-3-3-5-5-5-5-5-5-5-5-----------|
-3-3-3-3-3-3-3-3-5-5-5-5-5-5-5-5-----------|


------|
------|
------|
-0~---
-0~---
-0~---(Let it ring to the end)

And that's the song. I hope you enjoyed and I hope I'm correct in this tablature.

Tschüss,
~analog
Suggest correction
Creating personal tab
Creating personal tab
You can edit any tab online and save it as your Personal.

You can edit, replace or remove any tab part or add personal notes – all changes will be seen only by you.

Personal tabs can be accessed anytime from any device, even offline.
Learn more »
comments
print report bad tab
4 comments total. Showing first comments.
0 reply
boltstein 10 Sep 12, 2007 06:54 AM

solo is soooo wrong

0 reply
Rammkopf 10 Dec 12, 2007 02:30 AM

OMG! Were you drunk when you tabbed that?! oO

0 reply
zerstören 51 Feb 26, 2008 09:31 AM

the solo sounds right for me xP

guest
You may want to rate the tab now too:
select rating
Wanna post a correction for this tab? Suggest correction