Oops, an error
Loading. Please wait.

My World tab

version 4
version 4

Whole song

Interactive

2,114 views 1 this week
2 commentsread comments
1 2 3 4 5
1 last vote to show rating
add to favorites
×
Save as Personal and add changes to this tab that will be seen only by you. Learn more ›
×
You can save this tab as Personal to edit and correct it or add notes. All changes will be seen only by you. Learn more »
launch autoscroll
font size
0
reset
how to read this tab
guitar tuner
edit
Autoscroll
slow
fast
+/-
esc
set tempo
stop
So, this tab actually consists of 3 parts. The first one is the Vocal line, the
second and third are the two guitars. Have fun with it!

I: Vocals; C G C F A D
II: Rhythm Guitar; C G C F A D
III: Lead Guitar; C G C F A D

Vocals:
     W                   W                   W                 
D||-------------------|-------------------|-------------------|
A||-------------------|-------------------|-------------------|
F||-------------------|-------------------|-------------------|
C||-------------------|-------------------|-------------------|
G||-------------------|-------------------|-------------------|
C||-------------------|-------------------|-------------------|


  W                   W                   W                   W                 
-------------------|-------------------|-------------------|-------------------|
-------------------|-------------------|-------------------|-------------------|
-------------------|-------------------|-------------------|-------------------|
-------------------|-------------------|-------------------|-------------------|
-------------------|-------------------|-------------------|-------------------|
-------------------|-------------------|-------------------|-------------------|


  W                   W                   W                   W                 
-------------------|-------------------|-------------------|-------------------|
-------------------|-------------------|-------------------|-------------------|
-------------------|-------------------|-------------------|-------------------|
-------------------|-------------------|-------------------|-------------------|
-------------------|-------------------|-------------------|-------------------|
-------------------|-------------------|-------------------|-------------------|


  W                   W                   W                   W                 
-------------------|-------------------|-------------------|-------------------|
-------------------|-------------------|-------------------|-------------------|
-------------------|-------------------|-------------------|-------------------|
-------------------|-------------------|-------------------|-------------------|
-------------------|-------------------|-------------------|-------------------|
-------------------|-------------------|-------------------|-------------------|


                       Now you        get along         
  W                    Q        Q     Q         E   E   
-------------------|-----------------------------------|
-------------------|-----------------------------------|
-------------------|-----------------------------------|
-------------------|--15-------15----15--------12--15--|
-------------------|-----------------------------------|
-------------------|-----------------------------------|


      with me       I'm gonna            Make you mine             and make     
  E   Q       Q     E         E   E      Q             Q     Q     E        E   
-------------------------------------|-----------------------------------------|
-------------------------------------|-----------------------------------------|
-------------------------------------|-----------------------------------------|
--L--15------15----12--------12--12--|--15------------15----15----12-------15--|
-------------------------------------|-----------------------------------------|
-------------------------------------|-----------------------------------------|


      you see         in the        new world                                  
  E   Q       Q.      E      E      Q.        E  H           W                 
--------------------------------|-------------------------|-------------------|
--------------------------------|-------------------------|-------------------|
--------------------------------|-------------------------|-------------------|
--L--15------15------12-----12--|--15--------12--L--------|-------------------|
--------------------------------|-------------------------|-------------------|
--------------------------------|-------------------------|-------------------|


  W                   W                 
-------------------|-------------------|
-------------------|-------------------|
-------------------|-------------------|
-------------------|-------------------|
-------------------|-------------------|
-------------------|-------------------|


   Breath goes in             and breath           goes out            It  
   Q              Q     Q     E          E     E   Q        Q.     E   E   
--------------------------------------------|-----------------------------|
--------------------------------------------|-----------------------------|
--------------------------------------------|-----------------------------|
--15-------------15----15----12---------15--|--L--15-------15---------12--|
--------------------------------------------|-----------------------------|
--------------------------------------------|-----------------------------|


   makes me scream             and makes           me shout         in the     
   Q               Q     Q     E         E     E   Q        Q.      E      E   
--------------------------------------------|---------------------------------|
--------------------------------------------|---------------------------------|
--------------------------------------------|---------------------------------|
--15--------------15----15----12--------15--|--L--15-------15------12-----12--|
--------------------------------------------|---------------------------------|
--------------------------------------------|---------------------------------|


   new world                                                      
   Q.        E  H           W                   W                 
-------------------------|-------------------|-------------------|
-------------------------|-------------------|-------------------|
-------------------------|-------------------|-------------------|
--15--------12--L--------|-------------------|-------------------|
-------------------------|-------------------|-------------------|
-------------------------|-------------------|-------------------|


  W                   W                   W                 
-------------------|-------------------|-------------------|
-------------------|-------------------|-------------------|
-------------------|-------------------|-------------------|
-------------------|-------------------|-------------------|
-------------------|-------------------|-------------------|
-------------------|-------------------|-------------------|


   Rev it       up    and make           a start              
   Q      Q     Q     E        E     E   Q       H        E   
----------------------------------|--------------------------|
----------------------------------|--------------------------|
----------------------------------|--------------------------|
--15-----15----15----12-------15--|--L--15------15-----------|
----------------------------------|--------------------------|
----------------------------------|--------------------------|


   Tear it        up    and take           my heart         in the     
   Q        Q     Q     E        E     E   Q        Q.      E      E   
------------------------------------|---------------------------------|
------------------------------------|---------------------------------|
------------------------------------|---------------------------------|
--15-------15----15----12-------15--|--L--15-------15------12-----12--|
------------------------------------|---------------------------------|
------------------------------------|---------------------------------|


   new world                                                      
   Q.        E  H           W                   W                 
-------------------------|-------------------|-------------------|
-------------------------|-------------------|-------------------|
-------------------------|-------------------|-------------------|
--15--------12--L--------|-------------------|-------------------|
-------------------------|-------------------|-------------------|
-------------------------|-------------------|-------------------|


                   I'm    lost in       you   I'm lost     
  E  H.            E      Q       Q     Q     E        E   
----------------------|-----------------------------------|
----------------------|-----------------------------------|
----------------------|-----------------------------------|
------------------12--|--15------15----15----12-------15--|
----------------------|-----------------------------------|
----------------------|-----------------------------------|


      in crowds            I      fight for        you   and say     
  E   Q         Q.     E   E      Q          Q     Q     E       E   
------------------------------|-------------------------------------|
------------------------------|-------------------------------------|
------------------------------|-------------------------------------|
--L--15--------15---------12--|--15---------15----15----12------15--|
------------------------------|-------------------------------------|
------------------------------|-------------------------------------|


      out loud         It's a        new world                                  
  E   Q        Q.      E      E      Q.        E  H           W                 
---------------------------------|-------------------------|-------------------|
---------------------------------|-------------------------|-------------------|
---------------------------------|-------------------------|-------------------|
--L--15-------15------12-----12--|--15--------12--L--------|-------------------|
---------------------------------|-------------------------|-------------------|
---------------------------------|-------------------------|-------------------|


  W                   W                   W                   W                 
-------------------|-------------------|-------------------|-------------------|
-------------------|-------------------|-------------------|-------------------|
-------------------|-------------------|-------------------|-------------------|
-------------------|-------------------|-------------------|-------------------|
-------------------|-------------------|-------------------|-------------------|
-------------------|-------------------|-------------------|-------------------|


   This                                      is                
   W                    W                    W                 
--------------------|--------------------|--------------------|
--------------------|--------------------|--------------------|
--15----------------|---L----------------|--------------------|
--------------------|--------------------|--15----------------|
--------------------|--------------------|--------------------|
--------------------|--------------------|--------------------|


   my                   world                                  
   W                    Q    H.              W                 
--------------------|---------------------|-------------------|
--------------------|---------------------|-------------------|
--------------------|---------------------|-------------------|
--17----------------|--12-----------------|-------------------|
--------------------|---------------------|-------------------|
--------------------|---------------------|-------------------|


   This                                     is                
   W                   W                    W                 
--------------------|-------------------|--------------------|
--------------------|-------------------|--------------------|
--15----------------|--L----------------|--------------------|
--------------------|-------------------|--15----------------|
--------------------|-------------------|--------------------|
--------------------|-------------------|--------------------|


   my                   world                                  
   W                    Q    H.              W                 
--------------------|---------------------|-------------------|
--------------------|---------------------|-------------------|
--------------------|---------------------|-------------------|
--17----------------|--12-----------------|-------------------|
--------------------|---------------------|-------------------|
--------------------|---------------------|-------------------|


  W                   W                   W                   W                 
-------------------|-------------------|-------------------|-------------------|
-------------------|-------------------|-------------------|-------------------|
-------------------|-------------------|-------------------|-------------------|
-------------------|-------------------|-------------------|-------------------|
-------------------|-------------------|-------------------|-------------------|
-------------------|-------------------|-------------------|-------------------|


  W                   W                   W                   W                 
-------------------|-------------------|-------------------|-------------------|
-------------------|-------------------|-------------------|-------------------|
-------------------|-------------------|-------------------|-------------------|
-------------------|-------------------|-------------------|-------------------|
-------------------|-------------------|-------------------|-------------------|
-------------------|-------------------|-------------------|-------------------|


  W                   W                   W                   W                 
-------------------|-------------------|-------------------|-------------------|
-------------------|-------------------|-------------------|-------------------|
-------------------|-------------------|-------------------|-------------------|
-------------------|-------------------|-------------------|-------------------|
-------------------|-------------------|-------------------|-------------------|
-------------------|-------------------|-------------------|-------------------|


  W                   W                 
-------------------|-------------------|
-------------------|-------------------|
-------------------|-------------------|
-------------------|-------------------|
-------------------|-------------------|
-------------------|-------------------|


   Ripped off       pride and ripped               off pain            I   
   Q          Q     Q                E   E     E   Q        Q.     E   E   
--------------------------------------------|-----------------------------|
--------------------------------------------|-----------------------------|
--------------------------------------------|-----------------------------|
--15---------15----15---------------12--15--|--L--15-------15---------12--|
--------------------------------------------|-----------------------------|
--------------------------------------------|-----------------------------|


   take my        time  and make           you sane         in the     
   Q        Q     Q     E        E     E   Q        Q.      E      E   
------------------------------------|---------------------------------|
------------------------------------|---------------------------------|
------------------------------------|---------------------------------|
--15-------15----15----12-------15--|--L--15-------15------12-----12--|
------------------------------------|---------------------------------|
------------------------------------|---------------------------------|


   new world                                                      
   Q.        E  H           W                   W                 
-------------------------|-------------------|-------------------|
-------------------------|-------------------|-------------------|
-------------------------|-------------------|-------------------|
--15--------12--L--------|-------------------|-------------------|
-------------------------|-------------------|-------------------|
-------------------------|-------------------|-------------------|


  W                   W                   W                 
-------------------|-------------------|-------------------|
-------------------|-------------------|-------------------|
-------------------|-------------------|-------------------|
-------------------|-------------------|-------------------|
-------------------|-------------------|-------------------|
-------------------|-------------------|-------------------|


   This                                      is                
   W                    W                    W                 
--------------------|--------------------|--------------------|
--------------------|--------------------|--------------------|
--15----------------|---L----------------|--------------------|
--------------------|--------------------|--15----------------|
--------------------|--------------------|--------------------|
--------------------|--------------------|--------------------|


   my                   world                                  
   W                    Q    H.              W                 
--------------------|---------------------|-------------------|
--------------------|---------------------|-------------------|
--------------------|---------------------|-------------------|
--17----------------|--12-----------------|-------------------|
--------------------|---------------------|-------------------|
--------------------|---------------------|-------------------|


   This                                      is                
   W                    W                    W                 
--------------------|--------------------|--------------------|
--------------------|--------------------|--------------------|
--15----------------|---L----------------|--------------------|
--------------------|--------------------|--15----------------|
--------------------|--------------------|--------------------|
--------------------|--------------------|--------------------|


   my                   world                                  
   W                    Q    H.              W                 
--------------------|---------------------|-------------------|
--------------------|---------------------|-------------------|
--------------------|---------------------|-------------------|
--17----------------|--12-----------------|-------------------|
--------------------|---------------------|-------------------|
--------------------|---------------------|-------------------|


                                                    Our       
  W                   W                   H         H         
-------------------|-------------------|---------------------|
-------------------|-------------------|---------------------|
-------------------|-------------------|-----------11--------|
-------------------|-------------------|---------------------|
-------------------|-------------------|---------------------|
-------------------|-------------------|---------------------|


   whole     ex-          is-       tance       starts    to   change  
   H         H            H         H           H         Q    Q       
----------------------|----------------------|------------------------|
----------------------|----------------------|------------------------|
--11--------14--------|--13--------10--------|--7--------11----8------|
----------------------|----------------------|------------------------|
----------------------|----------------------|------------------------|
----------------------|----------------------|------------------------|


  E  E  H.              W                   W                 
---------------------|-------------------|-------------------|
---------------------|-------------------|-------------------|
--L------------------|-------------------|-------------------|
---------------------|-------------------|-------------------|
---------------------|-------------------|-------------------|
---------------------|-------------------|-------------------|


                                We're        born      with      
  W                   H         H            H         H         
-------------------|---------------------|----------------------|
-------------------|---------------------|----------------------|
-------------------|-----------11--------|--11--------14--------|
-------------------|---------------------|----------------------|
-------------------|---------------------|----------------------|
-------------------|---------------------|----------------------|


   love      and         born      with rage                        
   H         H           H         Q    Q       E  E  H.            
----------------------|----------------------|---------------------|
----------------------|----------------------|---------------------|
--13--------10--------|--7--------11----8----|--L------------------|
----------------------|----------------------|---------------------|
----------------------|----------------------|---------------------|
----------------------|----------------------|---------------------|


  W                   W                   W                 
-------------------|-------------------|-------------------|
-------------------|-------------------|-------------------|
-------------------|-------------------|-------------------|
-------------------|-------------------|-------------------|
-------------------|-------------------|-------------------|
-------------------|-------------------|-------------------|


            Our          whole     ex-          is-       tance     
  H         H            H         H            H         H         
---------------------|----------------------|----------------------|
---------------------|----------------------|----------------------|
-----------11--------|--11--------14--------|--13--------10--------|
---------------------|----------------------|----------------------|
---------------------|----------------------|----------------------|
---------------------|----------------------|----------------------|


  starts    to   change                                            
  H         Q    Q         E  E  H.              W                 
------------------------|---------------------|-------------------|
------------------------|---------------------|-------------------|
--7--------11----7------|--L------------------|-------------------|
------------------------|---------------------|-------------------|
------------------------|---------------------|-------------------|
------------------------|---------------------|-------------------|


                                                    We're     
  W                   W                   H         H         
-------------------|-------------------|---------------------|
-------------------|-------------------|---------------------|
-------------------|-------------------|-----------11--------|
-------------------|-------------------|---------------------|
-------------------|-------------------|---------------------|
-------------------|-------------------|---------------------|


   born      with         love      and         born      with rage  
   H         H            H         H           H         Q    Q     
----------------------|----------------------|----------------------|
----------------------|----------------------|----------------------|
--11--------14--------|--13--------10--------|--7--------11----8----|
----------------------|----------------------|----------------------|
----------------------|----------------------|----------------------|
----------------------|----------------------|----------------------|


  E  E  H.              W                   W                 
---------------------|-------------------|-------------------|
---------------------|-------------------|-------------------|
--L------------------|-------------------|-------------------|
---------------------|-------------------|-------------------|
---------------------|-------------------|-------------------|
---------------------|-------------------|-------------------|


  W                   W                   W                 
-------------------|-------------------|-------------------|
-------------------|-------------------|-------------------|
-------------------|-------------------|-------------------|
-------------------|-------------------|-------------------|
-------------------|-------------------|-------------------|
-------------------|-------------------|-------------------|


   Now you        get along               with me       I'm gonna         
   Q        Q     Q         E   E     E   Q       Q     E         E   E   
-----------------------------------|-------------------------------------|
-----------------------------------|-------------------------------------|
-----------------------------------|-------------------------------------|
--15-------15----15--------12--15--|--L--15------15----12--------12--12--|
-----------------------------------|-------------------------------------|
-----------------------------------|-------------------------------------|


   Make you mine             and make           you see         in the     
   Q             Q     Q     E        E     E   Q       Q.      E      E   
-----------------------------------------|--------------------------------|
-----------------------------------------|--------------------------------|
-----------------------------------------|--------------------------------|
--15------------15----15----12-------15--|--L--15------15------12-----12--|
-----------------------------------------|--------------------------------|
-----------------------------------------|--------------------------------|


   new world                                  
   Q.        E  H           W                 
-------------------------|-------------------|
-------------------------|-------------------|
-------------------------|-------------------|
--15--------12--L--------|-------------------|
-------------------------|-------------------|
-------------------------|-------------------|


   Now you        get along               with me       I'm gonna         
   Q        Q     Q         E   E     E   Q       Q     E         E   E   
-----------------------------------|-------------------------------------|
-----------------------------------|-------------------------------------|
-----------------------------------|-------------------------------------|
--15-------15----15--------12--15--|--L--15------15----12--------12--12--|
-----------------------------------|-------------------------------------|
-----------------------------------|-------------------------------------|


   Make you mine             and make           you see         in the     
   Q             Q     Q     E        E     E   Q       Q.      E      E   
-----------------------------------------|--------------------------------|
-----------------------------------------|--------------------------------|
-----------------------------------------|--------------------------------|
--15------------15----15----12-------15--|--L--15------15------12-----12--|
-----------------------------------------|--------------------------------|
-----------------------------------------|--------------------------------|


   new world                                     This              
   Q.        E  H           W                    W                 
-------------------------|-------------------|--------------------|
-------------------------|-------------------|--------------------|
-------------------------|-------------------|--15----------------|
--15--------12--L--------|-------------------|--------------------|
-------------------------|-------------------|--------------------|
-------------------------|-------------------|--------------------|


                        is                   my                
   W                    W                    W                 
--------------------|--------------------|--------------------|
--------------------|--------------------|--------------------|
---L----------------|--------------------|--------------------|
--------------------|--15----------------|--17----------------|
--------------------|--------------------|--------------------|
--------------------|--------------------|--------------------|


   world                                     This              
   Q    H.              W                    W                 
---------------------|-------------------|--------------------|
---------------------|-------------------|--------------------|
---------------------|-------------------|--15----------------|
--12-----------------|-------------------|--------------------|
---------------------|-------------------|--------------------|
---------------------|-------------------|--------------------|


                        is                   my                
   W                    W                    W                 
--------------------|--------------------|--------------------|
--------------------|--------------------|--------------------|
---L----------------|--------------------|--------------------|
--------------------|--15----------------|--17----------------|
--------------------|--------------------|--------------------|
--------------------|--------------------|--------------------|


   world                                     This              
   Q    H.              W                    W                 
---------------------|-------------------|--------------------|
---------------------|-------------------|--------------------|
---------------------|-------------------|--15----------------|
--12-----------------|-------------------|--------------------|
---------------------|-------------------|--------------------|
---------------------|-------------------|--------------------|


                        is                   my                
   W                    W                    W                 
--------------------|--------------------|--------------------|
--------------------|--------------------|--------------------|
---L----------------|--------------------|--------------------|
--------------------|--15----------------|--17----------------|
--------------------|--------------------|--------------------|
--------------------|--------------------|--------------------|


   world                                     This              
   Q    H.              W                    W                 
---------------------|-------------------|--------------------|
---------------------|-------------------|--------------------|
---------------------|-------------------|--15----------------|
--12-----------------|-------------------|--------------------|
---------------------|-------------------|--------------------|
---------------------|-------------------|--------------------|


                        is                   my                
   W                    W                    W                 
--------------------|--------------------|--------------------|
--------------------|--------------------|--------------------|
---L----------------|--------------------|--------------------|
--------------------|--15----------------|--17----------------|
--------------------|--------------------|--------------------|
--------------------|--------------------|--------------------|


   world                                                     
   W                   W                   W                 
--------------------|-------------------|-------------------|
--------------------|-------------------|-------------------|
--------------------|-------------------|-------------------|
--12----------------|--L----------------|--L----------------|
--------------------|-------------------|-------------------|
--------------------|-------------------|-------------------|


  W                   W                   W                   W                 
-------------------|-------------------|-------------------|-------------------|
-------------------|-------------------|-------------------|-------------------|
-------------------|-------------------|-------------------|-------------------|
-------------------|-------------------|-------------------|-------------------|
-------------------|-------------------|-------------------|-------------------|
-------------------|-------------------|-------------------|-------------------|


  W                   W                  
-------------------|-------------------||
-------------------|-------------------||
-------------------|-------------------||
-------------------|-------------------||
-------------------|-------------------||
-------------------|-------------------||

`~~~~~~~~~~~~~~~~~~~~~~~~~~~~~~~~~~~~~~~~~~~~~~~~~~~~~~~~~~~~~~~~~~~~`

Guitar 1
     W                   W                   E  E  E  E  S S E  E  E   
D||-------------------|-------------------|---------------------------|
A||-------------------|-------------------|---------------------------|
F||-------------------|-------------------|---------------------------|
C||-------------------|-------------------|---------------------------|
G||-------------------|-------------------|---------------------------|
C||-------------------|-------------------|--3--0--0--0--0-0-0--0--3--|


  E  E  E  E  S S E  S S E     E  E  E  E  S S E  E  E   
----------------------------|---------------------------|
----------------------------|---------------------------|
----------------------------|---------------------------|
----------------------------|---------------------------|
----------------------------|---------------------------|
--L--5--0--0--0-0-0--0-0-0--|--3--0--0--0--0-0-0--0--3--|


  E  E  E  E  S S E  S S E     E  E  E  E  S S E  E  E   
----------------------------|---------------------------|
----------------------------|---------------------------|
----------------------------|---------------------------|
----------------------------|---------------------------|
----------------------------|---------------------------|
--L--5--0--0--0-0-0--0-0-0--|--3--0--0--0--0-0-0--0--3--|


  E  E  E  E  S S E  S S E     E  E  E  E  S S E  E  E   
----------------------------|---------------------------|
----------------------------|---------------------------|
----------------------------|---------------------------|
----------------------------|--3---------------------3--|
----------------------------|--3--0--0--0--0-0-0--0--3--|
--L--5--0--0--0-0-0--0-0-0--|--3--0--0--0--0-0-0--0--3--|


  E  E  E  E  S S E  S S E     E  E  E  E  S S E  E  E   
----------------------------|---------------------------|
----------------------------|---------------------------|
----------------------------|---------------------------|
--L--5----------------------|--3---------------------3--|
--L--5--0--0--0-0-0--0-0-0--|--3--0--0--0--0-0-0--0--3--|
--L--5--0--0--0-0-0--0-0-0--|--3--0--0--0--0-0-0--0--3--|


  E  E  E  E  S S E  S S E     E  E  E  E  S S E  E  E   
----------------------------|---------------------------|
----------------------------|---------------------------|
----------------------------|---------------------------|
--L--5----------------------|--3---------------------3--|
--L--5--0--0--0-0-0--0-0-0--|--3--0--0--0--0-0-0--0--3--|
--L--5--0--0--0-0-0--0-0-0--|--3--0--0--0--0-0-0--0--3--|


  E  E  E  E  S S E  S S E     E  E  E  E  S S E  E  E   
----------------------------|---------------------------|
----------------------------|---------------------------|
----------------------------|---------------------------|
--L--5----------------------|--3---------------------3--|
--L--5--0--0--0-0-0--0-0-0--|--3--0--0--0--0-0-0--0--3--|
--L--5--0--0--0-0-0--0-0-0--|--3--0--0--0--0-0-0--0--3--|


  E  E  E  E  S S E  S S E     E  E  E  E  S S E  E  E   
----------------------------|---------------------------|
----------------------------|---------------------------|
----------------------------|---------------------------|
--L--5----------------------|--3---------------------3--|
--L--5--0--0--0-0-0--0-0-0--|--3--0--0--0--0-0-0--0--3--|
--L--5--0--0--0-0-0--0-0-0--|--3--0--0--0--0-0-0--0--3--|


  E  E  E  E  S S E  S S E     E  E  E  E  S S E  E  E   
----------------------------|---------------------------|
----------------------------|---------------------------|
----------------------------|---------------------------|
--L--5----------------------|--3---------------------3--|
--L--5--0--0--0-0-0--0-0-0--|--3--0--0--0--0-0-0--0--3--|
--L--5--0--0--0-0-0--0-0-0--|--3--0--0--0--0-0-0--0--3--|


  E  E  E  E  S S E  S S E     E  E  E  E  S S E  E  E   
----------------------------|---------------------------|
----------------------------|---------------------------|
----------------------------|---------------------------|
--L--5----------------------|--3---------------------3--|
--L--5--0--0--0-0-0--0-0-0--|--3--0--0--0--0-0-0--0--3--|
--L--5--0--0--0-0-0--0-0-0--|--3--0--0--0--0-0-0--0--3--|


  E  E  E  E  S S E  S S E     E  E  E  E  S S E  E  E   
----------------------------|---------------------------|
----------------------------|---------------------------|
----------------------------|---------------------------|
--L--5----------------------|--3---------------------3--|
--L--5--0--0--0-0-0--0-0-0--|--3--0--0--0--0-0-0--0--3--|
--L--5--0--0--0-0-0--0-0-0--|--3--0--0--0--0-0-0--0--3--|


  E  E  E  E  S S E  S S E     E  E  E  E  S S E  E  E   
----------------------------|---------------------------|
----------------------------|---------------------------|
----------------------------|---------------------------|
--L--5----------------------|--3---------------------3--|
--L--5--0--0--0-0-0--0-0-0--|--3--0--0--0--0-0-0--0--3--|
--L--5--0--0--0-0-0--0-0-0--|--3--0--0--0--0-0-0--0--3--|


  E  E  E  E  S S E  S S E     E  E  E  E  S S E  E  E   
----------------------------|---------------------------|
----------------------------|---------------------------|
----------------------------|---------------------------|
--L--5----------------------|--3---------------------3--|
--L--5--0--0--0-0-0--0-0-0--|--3--0--0--0--0-0-0--0--3--|
--L--5--0--0--0-0-0--0-0-0--|--3--0--0--0--0-0-0--0--3--|


  E  E  E  E  S S E  S S E     E  E  E  E  S S E  E  E   
----------------------------|---------------------------|
----------------------------|---------------------------|
----------------------------|---------------------------|
--L--5----------------------|--3---------------------3--|
--L--5--0--0--0-0-0--0-0-0--|--3--0--0--0--0-0-0--0--3--|
--L--5--0--0--0-0-0--0-0-0--|--3--0--0--0--0-0-0--0--3--|


  E  E  E  E  S S E  S S E     E  E  E  E  S S E  E  E   
----------------------------|---------------------------|
----------------------------|---------------------------|
----------------------------|---------------------------|
--L--5----------------------|--3---------------------3--|
--L--5--0--0--0-0-0--0-0-0--|--3--0--0--0--0-0-0--0--3--|
--L--5--0--0--0-0-0--0-0-0--|--3--0--0--0--0-0-0--0--3--|


  E  E  E  E  S S E  S S E     Q.     Q.     Q       E  Q.     Q    Q     
----------------------------|---------------------|----------------------|
----------------------------|---------------------|----------------------|
----------------------------|--7------6------3----|--L--2------5----5----|
--L--5----------------------|--7------6------3----|--L--2------5----5----|
--L--5--0--0--0-0-0--0-0-0--|--5------4------1----|--L--0------3----3----|
--L--5--0--0--0-0-0--0-0-0--|---------------------|----------------------|


  E  E  E  E  S S E  E  E     E  E  E  E  S S E  S S E   
---------------------------|----------------------------|
---------------------------|----------------------------|
---------------------------|----------------------------|
--3---------------------3--|--L--5----------------------|
--3--0--0--0--0-0-0--0--3--|--L--5--0--0--0-0-0--0-0-0--|
--3--0--0--0--0-0-0--0--3--|--L--5--0--0--0-0-0--0-0-0--|


  E  E  E  E  S S E  E  E     E  E  E  E  S S E  S S E   
---------------------------|----------------------------|
---------------------------|----------------------------|
---------------------------|----------------------------|
--3---------------------3--|--L--5----------------------|
--3--0--0--0--0-0-0--0--3--|--L--5--0--0--0-0-0--0-0-0--|
--3--0--0--0--0-0-0--0--3--|--L--5--0--0--0-0-0--0-0-0--|


  E  E  E  E  S S E  E  E     E  E  E  E  S S E  S S E   
---------------------------|----------------------------|
---------------------------|----------------------------|
---------------------------|----------------------------|
--3---------------------3--|--L--5----------------------|
--3--0--0--0--0-0-0--0--3--|--L--5--0--0--0-0-0--0-0-0--|
--3--0--0--0--0-0-0--0--3--|--L--5--0--0--0-0-0--0-0-0--|


  E  E  E  E  S S E  E  E     E  E  E  E  S S E  S S E   
---------------------------|----------------------------|
---------------------------|----------------------------|
---------------------------|----------------------------|
--3---------------------3--|--L--5----------------------|
--3--0--0--0--0-0-0--0--3--|--L--5--0--0--0-0-0--0-0-0--|
--3--0--0--0--0-0-0--0--3--|--L--5--0--0--0-0-0--0-0-0--|


  E  E  E  E  S S E  E  E     E  E  E  E  S S E  S S E   
---------------------------|----------------------------|
---------------------------|----------------------------|
---------------------------|----------------------------|
--3---------------------3--|--L--5----------------------|
--3--0--0--0--0-0-0--0--3--|--L--5--0--0--0-0-0--0-0-0--|
--3--0--0--0--0-0-0--0--3--|--L--5--0--0--0-0-0--0-0-0--|


  E  E  E  E  S S E  E  E     E  E  E  E  S S E  S S E   
---------------------------|----------------------------|
---------------------------|----------------------------|
---------------------------|----------------------------|
--3---------------------3--|--L--5----------------------|
--3--0--0--0--0-0-0--0--3--|--L--5--0--0--0-0-0--0-0-0--|
--3--0--0--0--0-0-0--0--3--|--L--5--0--0--0-0-0--0-0-0--|


  E  E  E  E  S S E  E  E     E  E  E  E  S S E  S S E   
---------------------------|----------------------------|
---------------------------|----------------------------|
---------------------------|----------------------------|
--3---------------------3--|--L--5----------------------|
--3--0--0--0--0-0-0--0--3--|--L--5--0--0--0-0-0--0-0-0--|
--3--0--0--0--0-0-0--0--3--|--L--5--0--0--0-0-0--0-0-0--|


  E  E  E  E  S S E  E  E     E  E  E  E  S S E  S S E     Q.     Q.     Q     
---------------------------|----------------------------|---------------------|
---------------------------|----------------------------|---------------------|
---------------------------|----------------------------|--7------6------3----|
--3---------------------3--|--L--5----------------------|--7------6------3----|
--3--0--0--0--0-0-0--0--3--|--L--5--0--0--0-0-0--0-0-0--|--5------4------1----|
--3--0--0--0--0-0-0--0--3--|--L--5--0--0--0-0-0--0-0-0--|---------------------|


  E  Q.     Q    Q       E  E  E  E  E  E  E  E     E  E  E  E  E  E  E  E   
----------------------|--------------------------|--------------------------|
----------------------|--------------------------|--------------------------|
--L--2------5----5----|--3--3--3--3--3--3--3--3--|--3--3--3--3--3--3--3--3--|
--L--2------5----5----|--3--3--3--3--3--3--3--3--|--3--3--3--3--3--3--3--3--|
--L--0------3----3----|--1--1--1--1--1--1--1--1--|--1--1--1--1--1--1--1--1--|
----------------------|--------------------------|--------------------------|


  E  E  E  E  E  E  E  E     E  E  E  E  E  E  E  E   
--------------------------|--------------------------|
--------------------------|--------------------------|
--------------------------|--------------------------|
--3--3--3--3--3--3--3--3--|--5--5--5--5--5--5--5--5--|
--3--3--3--3--3--3--3--3--|--5--5--5--5--5--5--5--5--|
--3--3--3--3--3--3--3--3--|--5--5--5--5--5--5--5--5--|


  E  E  E  E  E  E  E  E     E  E  E  E  E  E  E  E   
--------------------------|--------------------------|
--------------------------|--------------------------|
--------------------------|--------------------------|
--3--------------------3--|--L--5--------------------|
--3--0--0--0--0--0--0--3--|--L--5--0--0--0--0--0--0--|
--3--0--0--0--0--0--0--3--|--L--5--0--0--0--0--0--0--|


  E  E  E  E  E  E  E  E     E  E  E  E  E  E  E  E   
--------------------------|--------------------------|
--------------------------|--------------------------|
--3--3--3--3--3--3--3--3--|--3--3--3--3--3--3--3--3--|
--3--3--3--3--3--3--3--3--|--3--3--3--3--3--3--3--3--|
--1--1--1--1--1--1--1--1--|--1--1--1--1--1--1--1--1--|
--------------------------|--------------------------|


  E  E  E  E  E  E  E  E     E  E  E  E  E  E  E  E   
--------------------------|--------------------------|
--------------------------|--------------------------|
--------------------------|--------------------------|
--3--3--3--3--3--3--3--3--|--5--5--5--5--5--5--5--5--|
--3--3--3--3--3--3--3--3--|--5--5--5--5--5--5--5--5--|
--3--3--3--3--3--3--3--3--|--5--5--5--5--5--5--5--5--|


  E  E  E  E  E  E  E  E     E  E  E  E  E  E  E  E     Q.     Q.     Q     
--------------------------|--------------------------|---------------------|
--------------------------|--------------------------|---------------------|
--------------------------|--------------------------|--7------6------3----|
--3--------------------3--|--L--5--------------------|--7------6------3----|
--3--0--0--0--0--0--0--3--|--L--5--0--0--0--0--0--0--|--5------4------1----|
--3--0--0--0--0--0--0--3--|--L--5--0--0--0--0--0--0--|---------------------|


  E  Q.     Q    Q       E  E  E  E  S S E  E  E     E  E  E  E  S S E  S S E   
----------------------|---------------------------|----------------------------|
----------------------|---------------------------|----------------------------|
--L--2------5----5----|---------------------------|----------------------------|
--L--2------5----5----|--3---------------------3--|--L--5----------------------|
--L--0------3----3----|--3--0--0--0--0-0-0--0--3--|--L--5--0--0--0-0-0--0-0-0--|
----------------------|--3--0--0--0--0-0-0--0--3--|--L--5--0--0--0-0-0--0-0-0--|


  E  E  E  E  S S E  E  E     E  E  E  E  S S E  S S E   
---------------------------|----------------------------|
---------------------------|----------------------------|
---------------------------|----------------------------|
--3---------------------3--|--L--5----------------------|
--3--0--0--0--0-0-0--0--3--|--L--5--0--0--0-0-0--0-0-0--|
--3--0--0--0--0-0-0--0--3--|--L--5--0--0--0-0-0--0-0-0--|


  E  E  E  E  S S E  E  E     E  E  E  E  S S E  S S E   
---------------------------|----------------------------|
---------------------------|----------------------------|
---------------------------|----------------------------|
--3---------------------3--|--L--5----------------------|
--3--0--0--0--0-0-0--0--3--|--L--5--0--0--0-0-0--0-0-0--|
--3--0--0--0--0-0-0--0--3--|--L--5--0--0--0-0-0--0-0-0--|


  E  E  E  E  S S E  E  E     E  E  E  E  S S E  S S E   
---------------------------|----------------------------|
---------------------------|----------------------------|
---------------------------|----------------------------|
--3---------------------3--|--L--5----------------------|
--3--0--0--0--0-0-0--0--3--|--L--5--0--0--0-0-0--0-0-0--|
--3--0--0--0--0-0-0--0--3--|--L--5--0--0--0-0-0--0-0-0--|


  E  E  E  E  S S E  E  E     E  E  E  E  S S E  S S E   
---------------------------|----------------------------|
---------------------------|----------------------------|
---------------------------|----------------------------|
--3---------------------3--|--L--5----------------------|
--3--0--0--0--0-0-0--0--3--|--L--5--0--0--0-0-0--0-0-0--|
--3--0--0--0--0-0-0--0--3--|--L--5--0--0--0-0-0--0-0-0--|


  E  E  E  E  S S E  E  E     E  E  E  E  S S E  S S E   
---------------------------|----------------------------|
---------------------------|----------------------------|
---------------------------|----------------------------|
--3---------------------3--|--L--5----------------------|
--3--0--0--0--0-0-0--0--3--|--L--5--0--0--0-0-0--0-0-0--|
--3--0--0--0--0-0-0--0--3--|--L--5--0--0--0-0-0--0-0-0--|


  E  E  E  E  S S E  E  E     E  E  E  E  S S E  S S E   
---------------------------|----------------------------|
---------------------------|----------------------------|
---------------------------|----------------------------|
--3---------------------3--|--L--5----------------------|
--3--0--0--0--0-0-0--0--3--|--L--5--0--0--0-0-0--0-0-0--|
--3--0--0--0--0-0-0--0--3--|--L--5--0--0--0-0-0--0-0-0--|


  E  E  E  E  S S E  E  E     E  E  E  E  S S E  S S E   
---------------------------|----------------------------|
---------------------------|----------------------------|
---------------------------|----------------------------|
--3---------------------3--|--L--5----------------------|
--3--0--0--0--0-0-0--0--3--|--L--5--0--0--0-0-0--0-0-0--|
--3--0--0--0--0-0-0--0--3--|--L--5--0--0--0-0-0--0-0-0--|


  E  E  E  E  S S E  E  E     E  E  E  E  S S E  S S E   
---------------------------|----------------------------|
---------------------------|----------------------------|
---------------------------|----------------------------|
--3---------------------3--|--L--5----------------------|
--3--0--0--0--0-0-0--0--3--|--L--5--0--0--0-0-0--0-0-0--|
--3--0--0--0--0-0-0--0--3--|--L--5--0--0--0-0-0--0-0-0--|


  E  E  E  E  S S E  E  E     E  E  E  E  S S E  S S E     Q.     Q.     Q     
---------------------------|----------------------------|---------------------|
---------------------------|----------------------------|---------------------|
---------------------------|----------------------------|--7------6------3----|
--3---------------------3--|--L--5----------------------|--7------6------3----|
--3--0--0--0--0-0-0--0--3--|--L--5--0--0--0-0-0--0-0-0--|--5------4------1----|
--3--0--0--0--0-0-0--0--3--|--L--5--0--0--0-0-0--0-0-0--|---------------------|


  E  Q.     Q    Q       E  E  E  E  E  E  E  E     E  E  E  E  E  E  E  E   
----------------------|--------------------------|--------------------------|
----------------------|--------------------------|--------------------------|
--L--2------5----5----|--3--3--3--3--3--3--3--3--|--3--3--3--3--3--3--3--3--|
--L--2------5----5----|--3--3--3--3--3--3--3--3--|--3--3--3--3--3--3--3--3--|
--L--0------3----3----|--1--1--1--1--1--1--1--1--|--1--1--1--1--1--1--1--1--|
----------------------|--------------------------|--------------------------|


  E  E  E  E  E  E  E  E     E  E  E  E  E  E  E  E   
--------------------------|--------------------------|
--------------------------|--------------------------|
--------------------------|--------------------------|
--3--3--3--3--3--3--3--3--|--5--5--5--5--5--5--5--5--|
--3--3--3--3--3--3--3--3--|--5--5--5--5--5--5--5--5--|
--3--3--3--3--3--3--3--3--|--5--5--5--5--5--5--5--5--|


  E  E  E  E  E  E  E  E     E  E  E  E  E  E  E  E   
--------------------------|--------------------------|
--------------------------|--------------------------|
--------------------------|--------------------------|
--3--------------------3--|--L--5--------------------|
--3--0--0--0--0--0--0--3--|--L--5--0--0--0--0--0--0--|
--3--0--0--0--0--0--0--3--|--L--5--0--0--0--0--0--0--|


  E  E  E  E  E  E  E  E     E  E  E  E  E  E  E  E   
--------------------------|--------------------------|
--------------------------|--------------------------|
--3--3--3--3--3--3--3--3--|--3--3--3--3--3--3--3--3--|
--3--3--3--3--3--3--3--3--|--3--3--3--3--3--3--3--3--|
--1--1--1--1--1--1--1--1--|--1--1--1--1--1--1--1--1--|
--------------------------|--------------------------|


  E  E  E  E  E  E  E  E     E  E  E  E  E  E  E  E   
--------------------------|--------------------------|
--------------------------|--------------------------|
--------------------------|--------------------------|
--3--3--3--3--3--3--3--3--|--5--5--5--5--5--5--5--5--|
--3--3--3--3--3--3--3--3--|--5--5--5--5--5--5--5--5--|
--3--3--3--3--3--3--3--3--|--5--5--5--5--5--5--5--5--|


  E  E  E  E  E  E  E  E     E  E  E  E  E  E  E  E     Q.     Q.     Q     
--------------------------|--------------------------|---------------------|
--------------------------|--------------------------|---------------------|
--------------------------|--------------------------|--7------6------3----|
--3--------------------3--|--L--5--------------------|--7------6------3----|
--3--0--0--0--0--0--0--3--|--L--5--0--0--0--0--0--0--|--5------4------1----|
--3--0--0--0--0--0--0--3--|--L--5--0--0--0--0--0--0--|---------------------|


  E  Q.     Q    Q       W                   W                 
----------------------|-------------------|-------------------|
----------------------|-------------------|-------------------|
--L--2------5----5----|-------------------|-------------------|
--L--2------5----5----|-------------------|-------------------|
--L--0------3----3----|-------------------|-------------------|
----------------------|-------------------|-------------------|


  W                   W                   W                   W                 
-------------------|-------------------|-------------------|-------------------|
-------------------|-------------------|-------------------|-------------------|
-------------------|-------------------|-------------------|-------------------|
-------------------|-------------------|-------------------|-------------------|
-------------------|-------------------|-------------------|-------------------|
-------------------|-------------------|-------------------|-------------------|


  W                   W                   W                   W                 
-------------------|-------------------|-------------------|-------------------|
-------------------|-------------------|-------------------|-------------------|
-------------------|-------------------|-------------------|-------------------|
-------------------|-------------------|-------------------|-------------------|
-------------------|-------------------|-------------------|-------------------|
-------------------|-------------------|-------------------|-------------------|


  W                   W                   W                   W                 
-------------------|-------------------|-------------------|-------------------|
-------------------|-------------------|-------------------|-------------------|
-------------------|-------------------|-------------------|-------------------|
-------------------|-------------------|-------------------|-------------------|
-------------------|-------------------|-------------------|-------------------|
-------------------|-------------------|-------------------|-------------------|


  W                   W                   W                   W                 
-------------------|-------------------|-------------------|-------------------|
-------------------|-------------------|-------------------|-------------------|
-------------------|-------------------|-------------------|-------------------|
-------------------|-------------------|-------------------|-------------------|
-------------------|-------------------|-------------------|-------------------|
-------------------|-------------------|-------------------|-------------------|


  W                   W                   W                   W                 
-------------------|-------------------|-------------------|-------------------|
-------------------|-------------------|-------------------|-------------------|
-------------------|-------------------|-------------------|-------------------|
-------------------|-------------------|-------------------|-------------------|
-------------------|-------------------|-------------------|-------------------|
-------------------|-------------------|-------------------|-------------------|


  W                   W                   W                   W                 
-------------------|-------------------|-------------------|-------------------|
-------------------|-------------------|-------------------|-------------------|
-------------------|-------------------|-------------------|-------------------|
-------------------|-------------------|-------------------|-------------------|
-------------------|-------------------|-------------------|-------------------|
-------------------|-------------------|-------------------|-------------------|


  W                   W                   W                   W                 
-------------------|-------------------|-------------------|-------------------|
-------------------|-------------------|-------------------|-------------------|
-------------------|-------------------|-------------------|-------------------|
-------------------|-------------------|-------------------|-------------------|
-------------------|-------------------|-------------------|-------------------|
-------------------|-------------------|-------------------|-------------------|


  W                   E  E  E  E  E  E  E  E     Q.     Q.     Q     
-------------------|--------------------------|---------------------|
-------------------|--------------------------|---------------------|
-------------------|--7--7--7--7--7--7--7--7--|--7------6------3----|
-------------------|--------------------------|--7------6------3----|
-------------------|--5--5--5--5--5--5--5--5--|--5------4------1----|
-------------------|--------------------------|---------------------|


  E  Q.     Q    Q       W                   W                 
----------------------|-------------------|-------------------|
----------------------|-------------------|-------------------|
--L--2------5----5----|-------------------|-------------------|
--L--2------5----5----|-------------------|-------------------|
--L--0------3----3----|-------------------|-------------------|
----------------------|-------------------|-------------------|


  W                   W                   W                   W                 
-------------------|-------------------|-------------------|-------------------|
-------------------|-------------------|-------------------|-------------------|
-------------------|-------------------|-------------------|-------------------|
-------------------|-------------------|-------------------|-------------------|
-------------------|-------------------|-------------------|-------------------|
-------------------|-------------------|-------------------|-------------------|


  E  E  E  E  E  E  E  E     E  E  E  E  E  E  E  E   
--------------------------|--------------------------|
--------------------------|--------------------------|
--3-----3-----3--------3--|-----3--3-----3-----3-----|
--3-----3-----3-----3--3--|-----3--3-----3-----3-----|
--1-----1-----1-----1--1--|-----1--1-----1-----1-----|
--------------------------|--------------------------|


  E  E  E  E  E  E  E  E     E  E  E  E  E  E  E  E   
--------------------------|--------------------------|
--------------------------|--------------------------|
--------------------------|--------------------------|
--3-----3-----3-----3--5--|-----5--5-----5-----5-----|
--3-----3-----3-----3--5--|-----5--5-----5-----5-----|
--3-----3-----3-----3--5--|-----5--5-----5-----5-----|


  E  E  E  E  S S E  E  E     E  E  E  E  S S E  S S E   
---------------------------|----------------------------|
---------------------------|----------------------------|
---------------------------|----------------------------|
--3---------------------3--|--L--5----------------------|
--3--0--0--0--0-0-0--0--3--|--L--5--0--0--0-0-0--0-0-0--|
--3--0--0--0--0-0-0--0--3--|--L--5--0--0--0-0-0--0-0-0--|


  E  E  E  E  E  E  E  E     E  E  E  E  E  E  E  E   
--------------------------|--------------------------|
--------------------------|--------------------------|
--3--3--3--3--3--3--3--3--|--3--3--3--3--3--3--3--3--|
--3--3--3--3--3--3--3--3--|--3--3--3--3--3--3--3--3--|
--1--1--1--1--1--1--1--1--|--1--1--1--1--1--1--1--1--|
--------------------------|--------------------------|


  E  E  E  E  E  E  E  E     E  E  E  E  E  E  E  E   
--------------------------|--------------------------|
--------------------------|--------------------------|
--------------------------|--------------------------|
--3--3--3--3--3--3--3--3--|--5--5--5--5--5--5--5--5--|
--3--3--3--3--3--3--3--3--|--5--5--5--5--5--5--5--5--|
--3--3--3--3--3--3--3--3--|--5--5--5--5--5--5--5--5--|


  E  E  E  E  E  E  E  E     E  E  E  E  E  E  E  E   
--------------------------|--------------------------|
--------------------------|--------------------------|
--------------------------|--------------------------|
--3--------------------3--|--L--5--------------------|
--3--0--0--0--0--0--0--3--|--L--5--0--0--0--0--0--0--|
--3--0--0--0--0--0--0--3--|--L--5--0--0--0--0--0--0--|


  E  E  E  E  E  E  E  E     E  E  E  E  E  E  E  E   
--------------------------|--------------------------|
--------------------------|--------------------------|
--3--3--3--3--3--3--3--3--|--3--3--3--3--3--3--3--3--|
--3--3--3--3--3--3--3--3--|--3--3--3--3--3--3--3--3--|
--1--1--1--1--1--1--1--1--|--1--1--1--1--1--1--1--1--|
--------------------------|--------------------------|


  E  E  E  E  E  E  E  E     E  E  E  E  E  E  E  E   
--------------------------|--------------------------|
--------------------------|--------------------------|
--------------------------|--------------------------|
--3--3--3--3--3--3--3--3--|--5--5--5--5--5--5--5--5--|
--3--3--3--3--3--3--3--3--|--5--5--5--5--5--5--5--5--|
--3--3--3--3--3--3--3--3--|--5--5--5--5--5--5--5--5--|


  E  E  E  E  E  E  E  E     E  E  E  E  E  E  E  E   
--------------------------|--------------------------|
--------------------------|--------------------------|
--------------------------|--------------------------|
--3--------------------3--|--L--5--------------------|
--3--0--0--0--0--0--0--3--|--L--5--0--0--0--0--0--0--|
--3--0--0--0--0--0--0--3--|--L--5--0--0--0--0--0--0--|


  E  E  E  E  E  E  E  E     E  E  E  E  E  E  E  E   
--------------------------|--------------------------|
--------------------------|--------------------------|
--3--3--3--3--3--3--3--3--|--3--3--3--3--3--3--3--3--|
--3--3--3--3--3--3--3--3--|--3--3--3--3--3--3--3--3--|
--1--1--1--1--1--1--1--1--|--1--1--1--1--1--1--1--1--|
--------------------------|--------------------------|


  E  E  E  E  E  E  E  E     E  E  E  E  E  E  E  E   
--------------------------|--------------------------|
--------------------------|--------------------------|
--------------------------|--------------------------|
--3--3--3--3--3--3--3--3--|--5--5--5--5--5--5--5--5--|
--3--3--3--3--3--3--3--3--|--5--5--5--5--5--5--5--5--|
--3--3--3--3--3--3--3--3--|--5--5--5--5--5--5--5--5--|


  E  E  E  E  E  E  E  E     E  E  E  E  E  E  E  E   
--------------------------|--------------------------|
--------------------------|--------------------------|
--------------------------|--------------------------|
--3--------------------3--|--L--5--------------------|
--3--0--0--0--0--0--0--3--|--L--5--0--0--0--0--0--0--|
--3--0--0--0--0--0--0--3--|--L--5--0--0--0--0--0--0--|


  E  E  E  E  E  E  E  E     E  E  E  E  E  E  E  E   
--------------------------|--------------------------|
--------------------------|--------------------------|
--3--3--3--3--3--3--3--3--|--3--3--3--3--3--3--3--3--|
--3--3--3--3--3--3--3--3--|--3--3--3--3--3--3--3--3--|
--1--1--1--1--1--1--1--1--|--1--1--1--1--1--1--1--1--|
--------------------------|--------------------------|


  E  E  E  E  E  E  E  E     E  E  E  E  E  E  E  E     W                 
--------------------------|--------------------------|-------------------|
--------------------------|--------------------------|-------------------|
--------------------------|--------------------------|-------------------|
--3--3--3--3--3--3--3--3--|--5--5--5--5--5--5--5--5--|--0----------------|
--3--3--3--3--3--3--3--3--|--5--5--5--5--5--5--5--5--|--0----------------|
--3--3--3--3--3--3--3--3--|--5--5--5--5--5--5--5--5--|--0----------------|


  W                   W                   W                   W                 
-------------------|-------------------|-------------------|-------------------|
-------------------|-------------------|-------------------|-------------------|
-------------------|-------------------|-------------------|-------------------|
--L----------------|--L----------------|--L----------------|--L----------------|
--L----------------|--L----------------|--L----------------|--L----------------|
--L----------------|--L----------------|--L----------------|--L----------------|


  W                   W                   W                 
-------------------|-------------------|-------------------|
-------------------|-------------------|-------------------|
-------------------|-------------------|-------------------|
--L----------------|--L----------------|--L----------------|
--L----------------|--L----------------|--L----------------|
--L----------------|--L----------------|--L----------------|


  W                  
-------------------||
-------------------||
-------------------||
--L----------------||
--L----------------||
--L----------------||

`~~~~~~~~~~~~~~~~~~~~~~~~~~~~~~~~~~~~~~~~~~~~~~~~~~~~~~~~~~~~~~~~~~~~~~~`

Guitar 2
     W                   W                   W                 
D||-------------------|-------------------|-------------------|
A||-------------------|-------------------|-------------------|
F||-------------------|-------------------|-------------------|
C||-------------------|-------------------|-------------------|
G||-------------------|-------------------|-------------------|
C||-------------------|-------------------|-------------------|


  W                   W                   W                   W                 
-------------------|-------------------|-------------------|-------------------|
-------------------|-------------------|-------------------|-------------------|
-------------------|-------------------|-------------------|--7----------------|
-------------------|-------------------|-------------------|-------------------|
-------------------|-------------------|-------------------|--5----------------|
-------------------|-------------------|-------------------|-------------------|


  H.           E  E     E  E  E  E  S S E  E  E     E  E  E  E  S S E  S S E   
---------------------|---------------------------|----------------------------|
---------------------|---------------------------|----------------------------|
--L------------------|---------------------------|----------------------------|
---------------0-----|--3---------------------3--|--L--5----------------------|
--L------------0-----|--3--0--0--0--0-0-0--0--3--|--L--5--0--0--0-0-0--0-0-0--|
---------------0-----|--3--0--0--0--0-0-0--0--3--|--L--5--0--0--0-0-0--0-0-0--|


  E  E  E  E  S S E  E  E     E  E  E  E  S S E  S S E   
---------------------------|----------------------------|
---------------------------|----------------------------|
---------------------------|----------------------------|
--3---------------------3--|--L--5----------------------|
--3--0--0--0--0-0-0--0--3--|--L--5--0--0--0-0-0--0-0-0--|
--3--0--0--0--0-0-0--0--3--|--L--5--0--0--0-0-0--0-0-0--|


  E  E  E  E  S S E  E  E     E  E  E  E  S S E  S S E   
---------------------------|----------------------------|
---------------------------|----------------------------|
---------------------------|----------------------------|
--3---------------------3--|--L--5----------------------|
--3--0--0--0--0-0-0--0--3--|--L--5--0--0--0-0-0--0-0-0--|
--3--0--0--0--0-0-0--0--3--|--L--5--0--0--0-0-0--0-0-0--|


  E  E  E  E  S S E  E  E     E  E  E  E  S S E  S S E   
---------------------------|----------------------------|
---------------------------|----------------------------|
---------------------------|----------------------------|
--3---------------------3--|--L--5----------------------|
--3--0--0--0--0-0-0--0--3--|--L--5--0--0--0-0-0--0-0-0--|
--3--0--0--0--0-0-0--0--3--|--L--5--0--0--0-0-0--0-0-0--|


  E  E  E  E  S S E  E  E     E  E  E  E  S S E  S S E   
---------------------------|----------------------------|
---------------------------|----------------------------|
---------------------------|----------------------------|
--3---------------------3--|--L--5----------------------|
--3--0--0--0--0-0-0--0--3--|--L--5--0--0--0-0-0--0-0-0--|
--3--0--0--0--0-0-0--0--3--|--L--5--0--0--0-0-0--0-0-0--|


  E  E  E  E  S S E  E  E     E  E  E  E  S S E  S S E   
---------------------------|----------------------------|
---------------------------|----------------------------|
---------------------------|----------------------------|
--3---------------------3--|--L--5----------------------|
--3--0--0--0--0-0-0--0--3--|--L--5--0--0--0-0-0--0-0-0--|
--3--0--0--0--0-0-0--0--3--|--L--5--0--0--0-0-0--0-0-0--|


  E  E  E  E  S S E  E  E     E  E  E  E  S S E  S S E   
---------------------------|----------------------------|
---------------------------|----------------------------|
---------------------------|----------------------------|
--3---------------------3--|--L--5----------------------|
--3--0--0--0--0-0-0--0--3--|--L--5--0--0--0-0-0--0-0-0--|
--3--0--0--0--0-0-0--0--3--|--L--5--0--0--0-0-0--0-0-0--|


  E  E  E  E  S S E  E  E     E  E  E  E  S S E  S S E   
---------------------------|----------------------------|
---------------------------|----------------------------|
---------------------------|----------------------------|
--3---------------------3--|--L--5----------------------|
--3--0--0--0--0-0-0--0--3--|--L--5--0--0--0-0-0--0-0-0--|
--3--0--0--0--0-0-0--0--3--|--L--5--0--0--0-0-0--0-0-0--|


  E  E  E  E  S S E  E  E     E  E  E  E  S S E  S S E   
---------------------------|----------------------------|
---------------------------|----------------------------|
---------------------------|----------------------------|
--3---------------------3--|--L--5----------------------|
--3--0--0--0--0-0-0--0--3--|--L--5--0--0--0-0-0--0-0-0--|
--3--0--0--0--0-0-0--0--3--|--L--5--0--0--0-0-0--0-0-0--|


  E  E  E  E  S S E  E  E     E  E  E  E  S S E  S S E   
---------------------------|----------------------------|
---------------------------|----------------------------|
---------------------------|----------------------------|
--3---------------------3--|--L--5----------------------|
--3--0--0--0--0-0-0--0--3--|--L--5--0--0--0-0-0--0-0-0--|
--3--0--0--0--0-0-0--0--3--|--L--5--0--0--0-0-0--0-0-0--|


  E  E  E  E  S S E  E  E     E  E  E  E  S S E  S S E   
---------------------------|----------------------------|
---------------------------|----------------------------|
---------------------------|----------------------------|
--3---------------------3--|--L--5----------------------|
--3--0--0--0--0-0-0--0--3--|--L--5--0--0--0-0-0--0-0-0--|
--3--0--0--0--0-0-0--0--3--|--L--5--0--0--0-0-0--0-0-0--|


  E  E  E  E  S S E  E  E     E  E  E  E  S S E  S S E     Q.     Q.     Q     
---------------------------|----------------------------|---------------------|
---------------------------|----------------------------|---------------------|
---------------------------|----------------------------|--7------6------3----|
--3---------------------3--|--L--5----------------------|--7------6------3----|
--3--0--0--0--0-0-0--0--3--|--L--5--0--0--0-0-0--0-0-0--|--5------4------1----|
--3--0--0--0--0-0-0--0--3--|--L--5--0--0--0-0-0--0-0-0--|---------------------|


  E  Q.     Q    Q       E  E  E  E  S S E  E  E     E  E  E  E  S S E  S S E   
----------------------|---------------------------|----------------------------|
----------------------|---------------------------|----------------------------|
--L--2------5----5----|---------------------------|----------------------------|
--L--2------5----5----|--3---------------------3--|--L--5----------------------|
--L--0------3----3----|--3--0--0--0--0-0-0--0--3--|--L--5--0--0--0-0-0--0-0-0--|
----------------------|--3--0--0--0--0-0-0--0--3--|--L--5--0--0--0-0-0--0-0-0--|


  E  E  E  E  S S E  E  E     E  E  E  E  S S E  S S E   
---------------------------|----------------------------|
---------------------------|----------------------------|
---------------------------|----------------------------|
--3---------------------3--|--L--5----------------------|
--3--0--0--0--0-0-0--0--3--|--L--5--0--0--0-0-0--0-0-0--|
--3--0--0--0--0-0-0--0--3--|--L--5--0--0--0-0-0--0-0-0--|


  E  E  E  E  S S E  E  E     E  E  E  E  S S E  S S E   
---------------------------|----------------------------|
---------------------------|----------------------------|
---------------------------|----------------------------|
--3---------------------3--|--L--5----------------------|
--3--0--0--0--0-0-0--0--3--|--L--5--0--0--0-0-0--0-0-0--|
--3--0--0--0--0-0-0--0--3--|--L--5--0--0--0-0-0--0-0-0--|


  E  E  E  E  S S E  E  E     E  E  E  E  S S E  S S E   
---------------------------|----------------------------|
---------------------------|----------------------------|
---------------------------|----------------------------|
--3---------------------3--|--L--5----------------------|
--3--0--0--0--0-0-0--0--3--|--L--5--0--0--0-0-0--0-0-0--|
--3--0--0--0--0-0-0--0--3--|--L--5--0--0--0-0-0--0-0-0--|


  E  E  E  E  S S E  E  E     E  E  E  E  S S E  S S E   
---------------------------|----------------------------|
---------------------------|----------------------------|
---------------------------|----------------------------|
--3---------------------3--|--L--5----------------------|
--3--0--0--0--0-0-0--0--3--|--L--5--0--0--0-0-0--0-0-0--|
--3--0--0--0--0-0-0--0--3--|--L--5--0--0--0-0-0--0-0-0--|


  E  E  E  E  S S E  E  E     E  E  E  E  S S E  S S E   
---------------------------|----------------------------|
---------------------------|----------------------------|
---------------------------|----------------------------|
--3---------------------3--|--L--5----------------------|
--3--0--0--0--0-0-0--0--3--|--L--5--0--0--0-0-0--0-0-0--|
--3--0--0--0--0-0-0--0--3--|--L--5--0--0--0-0-0--0-0-0--|


  E  E  E  E  S S E  E  E     E  E  E  E  S S E  S S E   
---------------------------|----------------------------|
---------------------------|----------------------------|
---------------------------|----------------------------|
--3---------------------3--|--L--5----------------------|
--3--0--0--0--0-0-0--0--3--|--L--5--0--0--0-0-0--0-0-0--|
--3--0--0--0--0-0-0--0--3--|--L--5--0--0--0-0-0--0-0-0--|


  E  E  E  E  S S E  E  E     E  E  E  E  S S E  S S E     Q.     Q.     Q     
---------------------------|----------------------------|---------------------|
---------------------------|----------------------------|---------------------|
---------------------------|----------------------------|--7------6------3----|
--3---------------------3--|--L--5----------------------|--7------6------3----|
--3--0--0--0--0-0-0--0--3--|--L--5--0--0--0-0-0--0-0-0--|--5------4------1----|
--3--0--0--0--0-0-0--0--3--|--L--5--0--0--0-0-0--0-0-0--|---------------------|


  E  Q.     Q    Q        E   E   E   E   E   E   E   E   
----------------------|----------------------------------|
----------------------|----------------------------------|
--L--2------5----5----|--15--15--15--15--15--15--15--15--|
--L--2------5----5----|----------------------------------|
--L--0------3----3----|--13--13--13--13--13--13--13--13--|
----------------------|----------------------------------|


   E   E   E   E   E   E   E   E      E   E   E   E   E   E   E   E   
----------------------------------|----------------------------------|
----------------------------------|----------------------------------|
--15--15--15--15--15--15--15--15--|--10--10--10--10--10--10--10--10--|
----------------------------------|----------------------------------|
--13--13--13--13--13--13--13--13--|---8---8---8---8---8---8---8---8--|
----------------------------------|----------------------------------|


   E   E   E   E   E   E   E   E     E  E  E  E  E  E  E  E   
----------------------------------|--------------------------|
----------------------------------|--------------------------|
--12--12--12--12--12--12--12--12--|--------------------------|
----------------------------------|--3--------------------3--|
--10--10--10--10--10--10--10--10--|--3--0--0--0--0--0--0--3--|
----------------------------------|--3--0--0--0--0--0--0--3--|


  E  E  E  E  E  E  E  E      E   E   E   E   E   E   E   E   
--------------------------|----------------------------------|
--------------------------|----------------------------------|
--------------------------|--15--15--15--15--15--15--15--15--|
--L--5--------------------|----------------------------------|
--L--5--0--0--0--0--0--0--|--13--13--13--13--13--13--13--13--|
--L--5--0--0--0--0--0--0--|----------------------------------|


   E   E   E   E   E   E   E   E      E   E   E   E   E   E   E   E   
----------------------------------|----------------------------------|
----------------------------------|----------------------------------|
--15--15--15--15--15--15--15--15--|--10--10--10--10--10--10--10--10--|
----------------------------------|----------------------------------|
--13--13--13--13--13--13--13--13--|---8---8---8---8---8---8---8---8--|
----------------------------------|----------------------------------|


   E   E   E   E   E   E   E   E     E  E  E  E  E  E  E  E   
----------------------------------|--------------------------|
----------------------------------|--------------------------|
--12--12--12--12--12--12--12--12--|--------------------------|
----------------------------------|--3--------------------3--|
--10--10--10--10--10--10--10--10--|--3--0--0--0--0--0--0--3--|
----------------------------------|--3--0--0--0--0--0--0--3--|


  E  E  E  E  E  E  E  E      Q.     Q.     Q       E  Q.     H          
--------------------------|--10------9------6----|--L--5------8S--------|
--------------------------|----------------------|----------------------|
--------------------------|---7------6------3----|--L--2------5S--------|
--L--5--------------------|----------------------|----------------------|
--L--5--0--0--0--0--0--0--|----------------------|----------------------|
--L--5--0--0--0--0--0--0--|----------------------|----------------------|


   S  S  S  S  S  S  S  S  S  S  S  S  S  S  S  S   
--17-17-17-17-17-17-17-17-17-17-17-17-17-17-17-17S-|
---------------------------------------------------|
--14-14-14-14-14-14-14-14-14-14-14-14-14-14-14-14S-|
---------------------------------------------------|
---------------------------------------------------|
---------------------------------------------------|


   S  S  S  S  S  S  S  S  S  S  S  S  S  S  S  S   
--20-20-20-20-20-20-20-20-20-20-20-20-20-20-20-20S-|
---------------------------------------------------|
--17-17-17-17-17-17-17-17-17-17-17-17-17-17-17-17S-|
---------------------------------------------------|
---------------------------------------------------|
---------------------------------------------------|


   S  S  S  S  S  S  S  S  S  S  S  S  S  S  S  S   
--17-17-17-17-17-17-17-17-17-17-17-17-17-17-17-17S-|
---------------------------------------------------|
--14-14-14-14-14-14-14-14-14-14-14-14-14-14-14-14S-|
---------------------------------------------------|
---------------------------------------------------|
---------------------------------------------------|


   S  S  S  S  S  S  S  S  S  S  S  S  S  S  S  S   
--20-20-20-20-20-20-20-20-20-20-20-20-20-20-20-20S-|
---------------------------------------------------|
--17-17-17-17-17-17-17-17-17-17-17-17-17-17-17-17S-|
---------------------------------------------------|
---------------------------------------------------|
---------------------------------------------------|


   S  S  S  S  S  S  S  S  S  S  S  S  S  S  S  S   
--17-17-17-17-17-17-17-17-17-17-17-17-17-17-17-17S-|
---------------------------------------------------|
--14-14-14-14-14-14-14-14-14-14-14-14-14-14-14-14S-|
---------------------------------------------------|
---------------------------------------------------|
---------------------------------------------------|


   S  S  S  S  S  S  S  S  S  S  S  S  S  S  S  S   
--20-20-20-20-20-20-20-20-20-20-20-20-20-20-20-20\-|
---------------------------------------------------|
--17-17-17-17-17-17-17-17-17-17-17-17-17-17-17-17\-|
---------------------------------------------------|
---------------------------------------------------|
---------------------------------------------------|


    S  S  S  S  S  S  S  S  S  S  S  S  S  S  S  S  
---------------------------------------------------|
--/15-15-15-15-15-15-17-17-17-17-17-17-18-18-18-18-|
---------------------------------------------------|
---------------------------------------------------|
---------------------------------------------------|
---------------------------------------------------|


   S  S  S  S  S  S  S  S  Q.       E      E   E   E   E   E   Q      E   
--------15-15-15-15-15-15-17\----------|---------------------------------|
--18-18----------------------------15--|---L--15---------------------15--|
-----------------------------------14--|---L--14--12------12--14~----14--|
---------------------------------------|--------------15-----------------|
---------------------------------------|---------------------------------|
---------------------------------------|---------------------------------|


  E   E   E   E   E   Q     E     E   E   E   E   E   E   E   E   
-------------------------------|---------------------------------|
--L--15--------------------15--|-----15--------------------------|
--L--14--12------12--14----14--|--L--14--12------12--14--12--14--|
-------------15----------------|-------------15------------------|
-------------------------------|---------------------------------|
-------------------------------|---------------------------------|


   Q.       Q.       Q        E  E  E  E  S S E  E  E   
---------------------------|---------------------------|
--15-------15-------15-----|---------------------------|
--12b------12b------12b----|---------------------------|
---------------------------|--3---------------------3--|
---------------------------|--3--0--0--0--0-0-0--0--3--|
---------------------------|--3--0--0--0--0-0-0--0--3--|


  E  E  E  E  S S E  S S E     E  E  E  E  S S E  E  E   
----------------------------|---------------------------|
----------------------------|---------------------------|
----------------------------|---------------------------|
--L--5----------------------|--3---------------------3--|
--L--5--0--0--0-0-0--0-0-0--|--3--0--0--0--0-0-0--0--3--|
--L--5--0--0--0-0-0--0-0-0--|--3--0--0--0--0-0-0--0--3--|


  E  E  E  E  S S E  S S E     E  E  E  E  S S E  E  E   
----------------------------|---------------------------|
----------------------------|---------------------------|
----------------------------|---------------------------|
--L--5----------------------|--3---------------------3--|
--L--5--0--0--0-0-0--0-0-0--|--3--0--0--0--0-0-0--0--3--|
--L--5--0--0--0-0-0--0-0-0--|--3--0--0--0--0-0-0--0--3--|


  E  E  E  E  S S E  S S E     E  E  E  E  S S E  E  E   
----------------------------|---------------------------|
----------------------------|---------------------------|
----------------------------|---------------------------|
--L--5----------------------|--3---------------------3--|
--L--5--0--0--0-0-0--0-0-0--|--3--0--0--0--0-0-0--0--3--|
--L--5--0--0--0-0-0--0-0-0--|--3--0--0--0--0-0-0--0--3--|


  E  E  E  E  S S E  S S E     Q.     Q.     Q       E  Q.     Q    Q     
----------------------------|---------------------|----------------------|
----------------------------|---------------------|----------------------|
----------------------------|--7------6------3----|--L--2------5----5----|
--L--5----------------------|--7------6------3----|--L--2------5----5----|
--L--5--0--0--0-0-0--0-0-0--|--5------4------1----|--L--0------3----3----|
--L--5--0--0--0-0-0--0-0-0--|---------------------|----------------------|


   E   E   E   E   E   E   E   E      E   E   E   E   E   E   E   E   
----------------------------------|----------------------------------|
----------------------------------|----------------------------------|
--15--15--15--15--15--15--15--15--|--15--15--15--15--15--15--15--15--|
----------------------------------|----------------------------------|
--13--13--13--13--13--13--13--13--|--13--13--13--13--13--13--13--13--|
----------------------------------|----------------------------------|


   E   E   E   E   E   E   E   E      E   E   E   E   E   E   E   E   
----------------------------------|----------------------------------|
----------------------------------|----------------------------------|
--10--10--10--10--10--10--10--10--|--12--12--12--12--12--12--12--12--|
----------------------------------|----------------------------------|
---8---8---8---8---8---8---8---8--|--10--10--10--10--10--10--10--10--|
----------------------------------|----------------------------------|


  E  E  E  E  E  E  E  E     E  E  E  E  E  E  E  E   
--------------------------|--------------------------|
--------------------------|--------------------------|
--------------------------|--------------------------|
--3--------------------3--|--L--5--------------------|
--3--0--0--0--0--0--0--3--|--L--5--0--0--0--0--0--0--|
--3--0--0--0--0--0--0--3--|--L--5--0--0--0--0--0--0--|


   E   E   E   E   E   E   E   E      E   E   E   E   E   E   E   E   
----------------------------------|----------------------------------|
----------------------------------|----------------------------------|
--15--15--15--15--15--15--15--15--|--15--15--15--15--15--15--15--15--|
----------------------------------|----------------------------------|
--13--13--13--13--13--13--13--13--|--13--13--13--13--13--13--13--13--|
----------------------------------|----------------------------------|


   E   E   E   E   E   E   E   E      E   E   E   E   E   E   E   E   
----------------------------------|----------------------------------|
----------------------------------|----------------------------------|
--10--10--10--10--10--10--10--10--|--12--12--12--12--12--12--12--12--|
----------------------------------|----------------------------------|
---8---8---8---8---8---8---8---8--|--10--10--10--10--10--10--10--10--|
----------------------------------|----------------------------------|


  E  E  E  E  E  E  E  E     E  E  E  E  E  E  E  E      Q.     Q.     Q     
--------------------------|--------------------------|--10------9------6----|
--------------------------|--------------------------|----------------------|
--------------------------|--------------------------|---7------6------3----|
--3--------------------3--|--L--5--------------------|----------------------|
--3--0--0--0--0--0--0--3--|--L--5--0--0--0--0--0--0--|----------------------|
--3--0--0--0--0--0--0--3--|--L--5--0--0--0--0--0--0--|----------------------|


  E  Q.     H            W                    W                 
--L--5------8S--------|--------------------|-------------------|
----------------------|--------------------|-------------------|
--L--2------5S--------|--------------------|-------------------|
----------------------|--------------------|-------------------|
----------------------|--9~----------------|--L----------------|
----------------------|--------------------|-------------------|


  W                    W                   W                  
--------------------|-------------------|--------------------|
--------------------|-------------------|--------------------|
--------------------|-------------------|--------------------|
--------------------|-------------------|--------------------|
--8~----------------|--L----------------|--5~----------------|
--------------------|-------------------|--------------------|


  W                   W                    W                 
-------------------|--------------------|-------------------|
-------------------|--------------------|-------------------|
-------------------|--------------------|-------------------|
-------------------|--------------------|-------------------|
--L----------------|--5~----------------|--L----------------|
-------------------|--------------------|-------------------|


  W                    W                   W                  
--------------------|-------------------|--------------------|
--------------------|-------------------|--------------------|
--------------------|-------------------|--------------------|
--------------------|-------------------|--------------------|
--9~----------------|--L----------------|--8~----------------|
--------------------|-------------------|--------------------|


  W                   W                    W                 
-------------------|--------------------|-------------------|
-------------------|--------------------|-------------------|
-------------------|--------------------|-------------------|
-------------------|--------------------|-------------------|
--L----------------|--5~----------------|--L----------------|
-------------------|--------------------|-------------------|


  W                    H          E     E     E     E     
--------------------|------------------------------------|
--------------------|------------------------------------|
--------------------|------------------------------------|
--------------------|------------------------------------|
--5~----------------|--5~--------(5)~--(5)~--(5)~--(5)~--|
--------------------|------------------------------------|


   E   E   E   E   E   E   E   E      E   E   E   E   E   E   E   E   
----------------------------------|----------------------------------|
----------------------------------|----------------------------------|
--11--11--11--11--11--11--11--11--|--11--11--11--11--11--11--11--11--|
----------------------------------|----------------------------------|
---9---9---9---9---9---9---9---9--|---9---9---9---9---9---9---9---9--|
----------------------------------|----------------------------------|


   E   E   E   E   E   E   E   E      E   E   E   E   E   E   E   E   
----------------------------------|----------------------------------|
----------------------------------|----------------------------------|
--10--10--10--10--10--10--10--10--|--10--10--10--10--10--10--10--10--|
----------------------------------|----------------------------------|
---8---8---8---8---8---8---8---8--|---8---8---8---8---8---8---8---8--|
----------------------------------|----------------------------------|


  E  E  E  E  E  E  E  E     E  E  E  E  E  E  E  E   
--------------------------|--------------------------|
--------------------------|--------------------------|
--7--7--7--7--7--7--7--7--|--7--7--7--7--7--7--7--7--|
--------------------------|--------------------------|
--5--5--5--5--5--5--5--5--|--5--5--5--5--5--5--5--5--|
--------------------------|--------------------------|


  E  E  E  E  E  E  E  E     E  E  E  E  E  E  E  E   
--------------------------|--------------------------|
--------------------------|--------------------------|
--7--7--7--7--7--7--7--7--|--7--7--7--7--7--7--7--7--|
--------------------------|--------------------------|
--5--5--5--5--5--5--5--5--|--5--5--5--5--5--5--5--5--|
--------------------------|--------------------------|


   E   E   E   E   E   E   E   E      E   E   E   E   E   E   E   E   
----------------------------------|----------------------------------|
----------------------------------|----------------------------------|
--11--11--11--11--11--11--11--11--|--11--11--11--11--11--11--11--11--|
----------------------------------|----------------------------------|
---9---9---9---9---9---9---9---9--|---9---9---9---9---9---9---9---9--|
----------------------------------|----------------------------------|


   E   E   E   E   E   E   E   E      E   E   E   E   E   E   E   E   
----------------------------------|----------------------------------|
----------------------------------|----------------------------------|
--10--10--10--10--10--10--10--10--|--10--10--10--10--10--10--10--10--|
----------------------------------|----------------------------------|
---8---8---8---8---8---8---8---8--|---8---8---8---8---8---8---8---8--|
----------------------------------|----------------------------------|


  E  E  E  E  E  E  E  E     E  E  E  E  E  E  E  E   
--------------------------|--------------------------|
--------------------------|--------------------------|
--7--7--7--7--7--7--7--7--|--7--7--7--7--7--7--7--7--|
--------------------------|--------------------------|
--5--5--5--5--5--5--5--5--|--5--5--5--5--5--5--5--5--|
--------------------------|--------------------------|


  E  E  E  E  E  E  E  E       E   E   E   E   E   E   E   E   
---------------------------|----------------------------------|
---------------------------|----------------------------------|
--7--7--7--7--7--7--7--7S--|--19--19--19--19--19--19--19--19--|
---------------------------|----------------------------------|
--5--5--5--5--5--5--5--5S--|--17--17--17--17--17--17--17--17--|
---------------------------|----------------------------------|


   Q.     Q.     Q       E  Q.     H            W                 
--10------9------6----|--L--5------8S--------|-------------------|
----------------------|----------------------|-------------------|
---7------6------3----|--L--2------5S--------|-------------------|
----------------------|----------------------|-------------------|
----------------------|----------------------|-------------------|
----------------------|----------------------|-------------------|


  W                   W                   W                   W                 
-------------------|-------------------|-------------------|-------------------|
-------------------|-------------------|-------------------|-------------------|
-------------------|-------------------|-------------------|-------------------|
-------------------|-------------------|-------------------|-------------------|
-------------------|-------------------|-------------------|-------------------|
-------------------|-------------------|-------------------|-------------------|


  W                   E  E  E  E  E  E  E  E     E  E  E  E  E  E  E  E   
-------------------|--------------------------|--------------------------|
-------------------|--------------------------|--------------------------|
-------------------|--3-----3-----3--------3--|-----3--3-----3-----3-----|
-------------------|--3-----3-----3-----3--3--|-----3--3-----3-----3-----|
-------------------|--1-----1-----1-----1--1--|-----1--1-----1-----1-----|
-------------------|--------------------------|--------------------------|


  E  E  E  E  E  E  E  E     E  E  E  E  E  E  E  E   
--------------------------|--------------------------|
--------------------------|--------------------------|
--------------------------|--------------------------|
--3-----3-----3-----3--5--|-----5--5-----5-----5-----|
--3-----3-----3-----3--5--|-----5--5-----5-----5-----|
--3-----3-----3-----3--5--|-----5--5-----5-----5-----|


  E  E  E  E  S S E  E  E     E  E  E  E  S S E  S S E   
---------------------------|----------------------------|
---------------------------|----------------------------|
---------------------------|----------------------------|
--3---------------------3--|--L--5----------------------|
--3--0--0--0--0-0-0--0--3--|--L--5--0--0--0-0-0--0-0-0--|
--3--0--0--0--0-0-0--0--3--|--L--5--0--0--0-0-0--0-0-0--|


   E   E   E   E   E   E   E   E      E   E   E   E   E   E   E   E   
----------------------------------|----------------------------------|
----------------------------------|----------------------------------|
--15--15--15--15--15--15--15--15--|--15--15--15--15--15--15--15--15--|
----------------------------------|----------------------------------|
--13--13--13--13--13--13--13--13--|--13--13--13--13--13--13--13--13--|
----------------------------------|----------------------------------|


   E   E   E   E   E   E   E   E      E   E   E   E   E   E   E   E   
----------------------------------|----------------------------------|
----------------------------------|----------------------------------|
--10--10--10--10--10--10--10--10--|--12--12--12--12--12--12--12--12--|
----------------------------------|----------------------------------|
---8---8---8---8---8---8---8---8--|--10--10--10--10--10--10--10--10--|
----------------------------------|----------------------------------|


  E  E  E  E  E  E  E  E     E  E  E  E  E  E  E  E   
--------------------------|--------------------------|
--------------------------|--------------------------|
--------------------------|--------------------------|
--3--------------------3--|--L--5--------------------|
--3--0--0--0--0--0--0--3--|--L--5--0--0--0--0--0--0--|
--3--0--0--0--0--0--0--3--|--L--5--0--0--0--0--0--0--|


   E   E   E   E   E   E   E   E      E   E   E   E   E   E   E   E   
----------------------------------|----------------------------------|
----------------------------------|----------------------------------|
--15--15--15--15--15--15--15--15--|--15--15--15--15--15--15--15--15--|
----------------------------------|----------------------------------|
--13--13--13--13--13--13--13--13--|--13--13--13--13--13--13--13--13--|
----------------------------------|----------------------------------|


   E   E   E   E   E   E   E   E      E   E   E   E   E   E   E   E   
----------------------------------|----------------------------------|
----------------------------------|----------------------------------|
--10--10--10--10--10--10--10--10--|--12--12--12--12--12--12--12--12--|
----------------------------------|----------------------------------|
---8---8---8---8---8---8---8---8--|--10--10--10--10--10--10--10--10--|
----------------------------------|----------------------------------|


  E  E  E  E  E  E  E  E     E  E  E  E  E  E  E  E   
--------------------------|--------------------------|
--------------------------|--------------------------|
--------------------------|--------------------------|
--3--------------------3--|--L--5--------------------|
--3--0--0--0--0--0--0--3--|--L--5--0--0--0--0--0--0--|
--3--0--0--0--0--0--0--3--|--L--5--0--0--0--0--0--0--|


   E   E   E   E   E   E   E   E      E   E   E   E   E   E   E   E   
----------------------------------|----------------------------------|
----------------------------------|----------------------------------|
--15--15--15--15--15--15--15--15--|--15--15--15--15--15--15--15--15--|
----------------------------------|----------------------------------|
--13--13--13--13--13--13--13--13--|--13--13--13--13--13--13--13--13--|
----------------------------------|----------------------------------|


   E   E   E   E   E   E   E   E      E   E   E   E   E   E   E   E   
----------------------------------|----------------------------------|
----------------------------------|----------------------------------|
--10--10--10--10--10--10--10--10--|--12--12--12--12--12--12--12--12--|
----------------------------------|----------------------------------|
---8---8---8---8---8---8---8---8--|--10--10--10--10--10--10--10--10--|
----------------------------------|----------------------------------|


  E  E  E  E  E  E  E  E     E  E  E  E  E  E  E  E   
--------------------------|--------------------------|
--------------------------|--------------------------|
--------------------------|--------------------------|
--3--------------------3--|--L--5--------------------|
--3--0--0--0--0--0--0--3--|--L--5--0--0--0--0--0--0--|
--3--0--0--0--0--0--0--3--|--L--5--0--0--0--0--0--0--|


   E   E   E   E   E   E   E   E      E   E   E   E   E   E   E   E   
----------------------------------|----------------------------------|
----------------------------------|----------------------------------|
--15--15--15--15--15--15--15--15--|--15--15--15--15--15--15--15--15--|
----------------------------------|----------------------------------|
--13--13--13--13--13--13--13--13--|--13--13--13--13--13--13--13--13--|
----------------------------------|----------------------------------|


   E   E   E   E   E   E   E   E      E   E   E   E   E   E   E   E   
----------------------------------|----------------------------------|
----------------------------------|----------------------------------|
--10--10--10--10--10--10--10--10--|--12--12--12--12--12--12--12--12--|
----------------------------------|----------------------------------|
---8---8---8---8---8---8---8---8--|--10--10--10--10--10--10--10--10--|
----------------------------------|----------------------------------|


  W                   W                   W                   W                 
-------------------|-------------------|-------------------|-------------------|
-------------------|-------------------|-------------------|-------------------|
-------------------|-------------------|-------------------|-------------------|
--0----------------|--L----------------|--L----------------|--L----------------|
--0----------------|--L----------------|--L----------------|--L----------------|
--0----------------|--L----------------|--L----------------|--L----------------|


  W                   W                   W                   W                 
-------------------|-------------------|-------------------|-------------------|
-------------------|-------------------|-------------------|-------------------|
-------------------|-------------------|-------------------|-------------------|
--L----------------|--L----------------|--L----------------|--L----------------|
--L----------------|--L----------------|--L----------------|--L----------------|
--L----------------|--L----------------|--L----------------|--L----------------|


  W                  
-------------------||
-------------------||
-------------------||
--L----------------||
--L----------------||
--L----------------||




Duration Legend
---------------
W - whole
H - half
Q - quarter
E - 8th
S - 16th
T - 32nd
X - 64th
. - note dotted
|-n-|  - n-tuplets


Tablature Legend
----------------
L - tied note
x - dead note
g - grace note
(n) - ghost note
> - accentuded note
NH - natural harmonic
AH - artificial harmonic
TH - tapped harmonic
SH - semi harmonic
PH - pitch harmonic
h - hammer on
p - pull off
b - bend
br - bendRelease
pb - preBend
pbr - preBendRelease
brb - bendReleaseBend
\n/ - tremolo bar dip
\n - tremolo bar dive
-/n - tremolo bar Release up
/n\ - tremolo bar inverted dip
/n - tremolo bar return
-\n - tremolo bar Release down
S - shift slide
s - legato slide
/ -  slide into from below or out of upwards
\ -  slide into from above or out of downwards
~ - vibrato
W - wide vibrato
tr - trill
TP - tremolo picking
T - tapping
S - slap
P - pop
< - fade in
^ - brush up
v - brush down

            
            
Suggest correction
Creating personal tab
Creating personal tab
You can edit any tab online and save it as your Personal.

You can edit, replace or remove any tab part or add personal notes – all changes will be seen only by you.

Personal tabs can be accessed anytime from any device, even offline.
Learn more »
Give kudos to tab author, rate the tab!
1 2 3 4 5
comments
print report bad tab
2 comments total.
0 reply
--Nikki_Sixx-- 10 Aug 26, 2008 10:54 PM

WTF? I dnt get it

0 reply
--Nikki_Sixx-- 10 Aug 26, 2008 10:58 PM

i dnt see much point in the vocals part but the rest is great cheers

guest
You may want to rate the tab now too:
select rating
Wanna post a correction for this tab? Suggest correction