Oops, an error
Loading. Please wait.

Here Comes The Fire Tab

version 1
version 1

Whole song

Interactive

3,534 views 12 this week
1 commentread comment
1 2 3 4 5
excellent!
x 7
add to favorites
launch autoscroll
font size
0
reset
how to read this tab
guitar tuner
Tab Pro tools
  • play this tab
  • loop segment
  • change instrument
  • show fretboard
  • metronome
×
Best way to learn
"Here Comes The Fire"
Autoscroll
slow
fast
+/-
esc
set tempo
stop
Contributor
Difficulty
Tuning
novice
B F# B E G# C#
Artist: Emil Bulls
Song: Here Comes The Fire
Album: Phoenix (2009)
tabbed by: Necriononguitar
e-mail (no spam!): tim.rathgen@gmx.de

REAL FANS SUPPORT BANDS BANDS BY PURCHASING THEIR CDS!!!

Tuning: Drop B


. = Palm-Muted
~ = hold note
^ = vibrate
p = pull off
h = hammer on
/ = slide up
\ = slide down

"""Intro""" (= Chorus Part I/Post-Chorus) ich finde alles klingt passend...
E-------------------------------------------------|
B-------------------------------------------------|
G-------------------------------------------------|
D---0-3-5-0--6-5-0--7-8-0(0)0-0-3-0--3-5----------|
A---0-3-5-0--6-5-0--7-8-0(0)0-0-3-0--3-5----------|
E---0-3-5-0--6-5-0--7-8-0(0)0-0-3-0--3-5----------|
 oder
E--------------------------------------------------|
B--------------------------------------------------|
G--------------------------------------------------|
D---0-3-5-0--6-5-0--7-8-0(0)0-0-3-0--6-5-----------|
A---0-3-5-0--6-5-0--7-8-0(0)0-0-3-0--6-5-----------|
E---0-3-5-0--6-5-0--7-8-0(0)0-0-3-0--6-5-----------|
 oder
E-------------------------------------------------|
B-------------------------------------------------|
G-------------------------------------------------|
D---0-3-5-0--6-5-0--7-8-0-3-0--3-5-6-5------------|
A---0-3-5-0--6-5-0--7-8-0-3-0--3-5-6-5------------|
E---0-3-5-0--6-5-0--7-8-0-3-0--3-5-6-5------------|

"""Verse""" 0:12
Guitar 1
E-----------------------------------------------------|
B-----------------------------------------------------|
G-----------------------------------------------------|
D---(1p)0-0-0-0--3--0-0--6--0--3--0--3--0--3/5--------|
A---(1p)0-0-0-0--3--0-0--6--0--3--0--3--0--3/5--------|
E---(1p)0-0-0-0--3--0-0--6--0--3--0--3--0--3/5--------|

E--------------------------------------------------------|
B--------------------------------------------------------|
G--------------------------------------------------------|
D-------------6--------------------3-----3/5-5-5---------|
A----666-6-6--6--6-6-6----333-3-3--3--3--3/5-5-5---------|
E----666-6-6--6--6-6-6----333-3-3--3--3--3/5-5-5---------|
     ... . .     . . .    ... . .     .

E---------------------------------------------|
B---------------------------------------------|
G---------------------------------------------|
D----0--3--0--6(x)6-5---0--3--6--6------------|
A----0--3--0--6(x)6-5---0--3--6--6------------|
E----0--3--0--6(x)6-5---0--3--6--6------------|


Guitar 2
at 0:23
E----------------------------------------------------|
B----------------------------------------------------|
G----------------------------------------------------|
D----------------------------------------------------|
A---0-0-0-0-0-0-0-0--0-0-0-0-0-0-0-0-----------------|
E---0-0-0-0-0-0-0-0--0-0-0-0-0-0-0-0-----------------|
    . . . . . . . .  . . . . . . . .

at 0:28
E----------------------------------------------------|
B----------------------------------------------------|
G----------------------------------------------------|
D----------------------------------------------------|
A----6-6-6-6-6-6-6-6--6-6-6-6-6-6-6-6----------------|
E----6-6-6-6-6-6-6-6--6-6-6-6-6-6-6-6----------------|
     . . . . . . . .  . . . . . . . .


"""REPEAT CHORUS I""" (INTRO)


"""Chorus Part II"""  0:45
E------------------------------------------------------------------|
B------------------------------------------------------------------|
G------------------------------------------------------------------|
D---12------8------3------5----------12-------8-------3------------|
A---12-x8---8-x8---3-x8---5-x8-------12-x8----8-x8----3-x16--------|
E---12------8------3------5----------12-------8-------3------------|

E---------------------------------------------------------------------|
B---------------------------------------------------------------------|
G---------------------------------------------------------------------|
D---12-------8------3------10----------12-------8------3--------------|
A---12-x8----8-x8---3-x8---10-x8-------12-x8----8-x8---3-x16----------|
E---12-------8------3------10----------12-------8------3--------------|

"""REPEAT POST-CHORUS"""

"""REPEAT VERSE"""

"""REPEAT CHORUS PART I+II"""


"""Interlude I""" 2:06
E----------------------------------------------------|
B----------------------------------------------------|
G----------------------------------------------------|
D----8-8-8-8-8-8-8-8-8--8-8-8-8-8-8-8-8--------------|
A----8-8-8-8-8-8-8-8-8--8-8-8-8-8-8-8-8--------------|
E----8-8-8-8-8-8-8-8-8--8-8-8-8-8-8-8-8--------------|

E----------------------------------------------------|
B----------------------------------------------------|
G----------------------------------------------------|
D----0-3-5-0--6-5-0-3--000--3-0--6-5-3-5-------------|
A----0-3-5-0--6-5-0-3--000--3-0--6-5-3-5-------------|
E----0-3-5-0--6-5-0-3--000--3-0--6-5-3-5-------------|
                       ...

"""Break""" 2:17
E----------------------------------------------------|
B----------------------------------------------------|
G----------------------------------------------------|
D----------------------------------------------------|
A----------------------------------------------------|
E---0-3-5-0--6-5-0--7-8-0--3-0-5--0-3-5--------------|
    . . . .  . . .  . . .  . . .  . . .


at 2:28
E----------------------------------------------------|
B----------------------------------------------------|
G----------------------------------------------------|
D----------------------------------------------------|
A----------------------------------------------------|
E---0-3-5-0--6-5-0--7-8-0--3-0-5--0-3-5--------------|


at 2:39
E----------------------------------------------------|
B----------------------------------------------------|
G----------------------------------------------------|
D---0-3-5-0--6-5-0--7-8-0--3-0-5--0-3-5--------------|
A---0-3-5-0--6-5-0--7-8-0--3-0-5--0-3-5--------------|
E---0-3-5-0--6-5-0--7-8-0--3-0-5--0-3-5--------------|

"""Interlude/Bridge/kein plan wie man das nennt""" 3:00
Guitar CLEAN
E--------5-------------------------------------------------------------------|
B--------------6--5--6--5-(3)------------6---5-(6)---------6--5--6-----------|
G-----7-----7---------------------3---------------------7---------(7)--------|
D---0--------------------------5----(5)---(5)---------8----------------------|
A----------------------------------------------------------------------------|
E----------------------------------------------------------------------------|

Guitar DISTORTION
E----------------------------------------------------|
B----------10----------------10----------------------|
G---7-9-7-----9-7-9----7-9-7----9-7-9----------------| (alles wdh)
D----------------------------------------------------|
A----------------------------------------------------|
E----------------------------------------------------|
    . . .  .  . . .    . . . .  . . .

und die letzten beiden sind ein wenig höher:
E----------8-----------------8---------------------|
B--------------------------------------------------|
G----7-9-7----9-7-9----7-9-7----9-7-9--------------|
D--------------------------------------------------|
A--------------------------------------------------|
E--------------------------------------------------|
     . . . .  . . .    . . . .  . . .

und zum schluss nur noch 2 mal folgendes:
"""REPEAT CHORUS 1+2"""


das wars... ich hoffe es hat gefallen, bitte verbessert mich gerne und macht 
auf jeden fall bewertet und hinterlasst nen kommentar ;D

Cheers...
comments
print report bad tab
1 comment total.
0 reply
emilbullforever wrote on May 6 2010, 09:50 am

super tab, abe am anfang felht der letzte takt...

I want to post or [tab]
guest
You may want to rate the tab now too:
select rating
Please do not post tabs as comments. Select "correction" instead!