Oops, an error
Loading. Please wait.

Inte Vackrast I Varlden Tab

79 views 1 this week
no commentswrite comment
1 2 3 4 5
2 more votes to show rating
add to favorites
launch autoscroll
font size
0
reset
how to read this tab
guitar tuner
Autoscroll
slow
fast
+/-
esc
set tempo
stop
Author
Difficulty
Capo
intermediate
5th fret
About this tab version
This version includes detalied tabs for the intro and verse. Was this info helpful? Yes No
Emil Jensen - Inte Vackrast I Världen
Capo on 5th

Chord clarification:

F# 
e|-0-|
B|-0-|
G|-2-|
D|-2-|
A|-0-|
E|-2-|




[Intro]

    Am      F#     F      G          Am      F#      F      G* (slide the F-chord up 2 frets into a G-chord)
e|----------------------------------|-------------------0----------0----|
B|-----1p0-----0--------------------|----1p0------0-----1---1---3----3--|
G|--------2---------2--2------4-----|--------2----------2-------4------4|
D|--2-----------2---3---3----5-----5|---------------2---3-------5-------|
A|--0---------------3---------------|--0--------------------------------|
E|----------2-------1------3-----4--|----------2------------------------|

    Am      F#     F      G          Am      F#      F      G
e|----------------------------------|-----------------------------------|
B|-----1p0-----0--------------------|----1p0------0---------------------|
G|--------2---------2--2------4-----|--------2----------2--2-------4----|
D|--------------2---3---3----5-----5|---------------2---3---3-----5----5|
A|--0---------------3---------------|--0----------------3---------------|
E|----------2-------1------3-----4--|----------2--------1------3-----4--|

[Verse 1]

    Am      F#     F      G          Am      F#      F      G
e|----------------------------------|-----------------------------------|
B|-----1p0-----0--------------------|----1p0------0---------------------|
G|--------2------------2------4-----|--------2-------------2-------4----|
D|--------------2-------3----5-----5|---------------2-------3-----5----5|
A|--0-------------------------------|--0--------------------------------|
E|----------2-------1------3-----4--|----------2--------1------3-----4--|

    Am      F#     F      G          Am       B       C      E*(Let the last note ring out)
e|----------------------------------|------------------------------0----|
B|-----1p0-----0--------------------|---1-------1-------1------------3--|
G|--------2------------2------4-----|-----2-------0-------0-----1------1|
D|--------------2-------3----5-----5|-------2-------0-------2-----2-----|
A|--0-------------------------------|-0--------2-------3----------------|
E|----------2-------1------3-----4--|-------------------------0---------|


[Verse 2]

    Am      F#     F      G          Am      F#      F      G
e|----------------------------------|-----------------------------------|
B|-----1p0-----0--------------------|----1p0------0---------------------|
G|--------2------------2------4-----|--------2-------------2-------4----|
D|--------------2-------3----5-----5|---------------2-------3-----5----5|
A|--0-------------------------------|--0--------------------------------|
E|----------2-------1------3-----4--|----------2--------1------3-----4--|

    Am      F#     F      G          Am       B       C      E*(Let the last note ring out)
e|----------------------------------|------------------------------0----|
B|-----1p0-----0--------------------|---1-------1-------1------------3--|
G|--------2------------2------4-----|-----2-------0-------0-----1------1|
D|--------------2-------3----5-----5|-------2-------0-------2-----2-----|
A|--0-------------------------------|-0--------2-------3----------------|
E|----------2-------1------3-----4--|-------------------------0---------|



[Chorus]
(The chorus is strummed)

Am    G    C          E7
Ni är inte vackrast i världen,
F          G          C     E7
världen är vackrast i er.
Am     G    C     E7
Det är inte i era ögon,
    F    G      Am    E7   Am    E7
Det är i vad ni ser.


[Verse 3]

    Am      F#     F      G          Am      F#      F      G
e|----------------------------------|-----------------------------------|
B|-----1p0-----0--------------------|----1p0------0---------------------|
G|--------2------------2------4-----|--------2-------------2-------4----|
D|--------------2-------3----5-----5|---------------2-------3-----5----5|
A|--0-------------------------------|--0--------------------------------|
E|----------2-------1------3-----4--|----------2--------1------3-----4--|

    Am      F#     F      G          Am       B       C      E*(Let the last note ring out)
e|----------------------------------|------------------------------0----|
B|-----1p0-----0--------------------|---1-------1-------1------------3--|
G|--------2------------2------4-----|-----2-------0-------0-----1------1|
D|--------------2-------3----5-----5|-------2-------0-------2-----2-----|
A|--0-------------------------------|-0--------2-------3----------------|
E|----------2-------1------3-----4--|-------------------------0---------|


[Chorus]
(The chorus is strummed)

Am    G    C          E7
Ni är inte vackrast i världen,
F          G          C     E7
världen är vackrast i er.
Am     G    C     E7
Det är inte i era ögon,
    F    G      Am    Dm
Det är i vad ni ser.


[Stick]

Dm                Am
Åh, hur ni lyckas inspirera.
E7                     Am
Får mig att vilja orka mera.
F#                      F                  E7
Utan att jag känner mig sämre, eller måste prestera.
Dm                     Am
Åh, hur ni lyckas exhaltera.
E7                     Am
FÅr mig att orka vilja mera.
F#                          F                    E7
Det hörs på era röster. Det lyser igenom när man ser er.



[Chorus]
(The chorus is strummed)

Am    G    C          E7
Ni är inte vackrast i världen,
F          G          C     E7
världen är vackrast i er.
Am     G    C     E7
Det är inte i era ögon,
    F    G      Am    E7
Det är i vad ni ser.







************************************

| p   Pull-off

************************************


Tab and chords by mumrikn
Text from http://www.songteksten.nl/songteksten/169751/emil-jensen/inte-vackrast-i-v%C3%A4rlden.htm
Suggest correction
Give kudos to tab author, rate the tab!
1 2 3 4 5
comments
print report bad tab
guest
You may want to rate the tab now too:
select rating
Wanna post a correction for this tab? Suggest correction