Oops, an error
Loading. Please wait.

The Ice Skaters tab

19 views 1 this week
no commentswrite comment
1 2 3 4 5
3 more votes to show rating
add to favorites
×
Save as Personal and add changes to this tab that will be seen only by you. Learn more ›
×
You can save this tab as Personal to edit and correct it or add notes. All changes will be seen only by you. Learn more »
launch autoscroll
font size
0
reset
how to read this tab
guitar tuner
edit
Autoscroll
slow
fast
+/-
esc
set tempo
stop
Author
Difficulty
About this tab version
The ice skaters was originally written for piano, but I chose to arrange it for 2 guitars. It is possible to play both parts simultaneously, but it would be difficult and not sound as good. In Part B, I opted to change the guitar two part into full chords as opposed to intervals. Was this info helpful? Yes No
3/4 time

[Part A]
  Guitar 1 "gliding along"
      1 -  -          1   2  -      1 -    -        1   -   -
e|-----------------|------------|---------------|----------------|
B|-----------------|------------|---------------|----------------|
G|-----------------|--0---2-----|---2-----------|---2------------|
D|----2------------|------------|---------------|----------------|
A|-----------------|------------|---------------|----------------|
E|-----------------|------------|---------------|----------------|
 |
 | Guitar 2 -light and chirpy
 |    1   2   3                     1   2   3       1   2   3
e|-----------------|------------|---------------|----------------|
B|-----------------|------------|---------------|----------------|
G|--------0---0----|------------|-------0---0---|-------0---0----|
D|--------2---2----|------------|---0---3---3---|---0---3---3----|
A|----3------------|------------|---------------|----------------|
E|-----------------|------------|---------------|----------------|


     1   -    -       1    2  -     1   -   -       1   -   -
e|----------------|-------------|---------------|----------------|
B|----------------|--------0----|---0-----------|---0------------|
G|----------------|---2---------|---------------|----------------|
D|---3------------|-------------|---------------|----------------|
A|----------------|-------------|---------------|----------------|
E|----------------|-------------|---------------|----------------|
 |
 |   1   2   3                      1   2   3       1   2   3
e|----------------|-------------|---------------|----------------|
B|----------------|-------------|---------------|----------------|
G|-------0---0----|-------------|-------0---0---|-------0---0----|
D|---0---3---3----|-------------|-------2---2---|-------2---2----|
A|----------------|-------------|---3-----------|---3------------|
E|----------------|-------------|---------------|----------------|


     1   2   3       1   2   3       1   2   3      1   2   3
e|---------------|---------------|---------------|----------------|
B|---3---1---0---|---1---0-------|---------------|----------------|
G|---------------|-----------2---|---0-----------|----------------|
D|---------------|---------------|-------3---2---|---0---2---3----|
A|---------------|---------------|---------------|----------------|
E|---------------|---------------|---------------|----------------|
 |
 |                                   1   2   3       1   2   3
e|---------------|---------------|---------------|----------------|
B|---------------|---------------|---------------|----------------|
G|---------------|---------------|---0-----------|----------------|
D|---------------|---------------|-------3---2---|---0---2---3----|
A|---------------|---------------|---------------|----------------|
E|---------------|---------------|---------------|----------------|


     1   -   -       1    -   -      1  -   -      fermata    1   fermata
e|---------------|---------------|----------------|-------|--------------|
B|---------------|---------------|----------------|---1---|--------------|
G|---------------|---------------|----------------|-------|---0---0------|
D|---2-----------|---0-----------|----------------|---2---|--------------|
A|---------------|---------------|---3------------|-------|--------------|
E|---------------|---------------|----------------|-------|--------------|
 |
 |   1   2   3       1   2   3       1   2   3      
e|---------------|---------------|----------------|-------|--------------|
B|---------------|---------------|----------------|-------|--------------|
G|-------0---0---|-------0---0---|-------0---0----|-------|--------------|
D|-------2---2---|-------3---3---|-------2---2----|-------|--------------|
A|---3-----------|---2-----------|---3------------|-------|--------------|
E|---------------|---------------|----------------|-------|--------------|

[Part B]
     1 + 2 + 3 +      1 + 2 + 3 +      1   2   3       1   2   3
e|----------------|----------------|---------------|-----------------|
B|-----1---1---1--|-----1---1---1--|-------0---0---|-------0---0-----|
G|---0---2---0----|---2---0---2----|---0-----------|---0-------------|
D|----------------|----------------|---------------|-----------------|
A|----------------|----------------|---------------|-----------------|
E|----------------|----------------|---------------|-----------------|
 |
 |                                         2   3           2   3
e|---0---0---0----|---0---0---0----|---------------|-----------------|
B|---1---1---1----|---1---1---1----|---------------|-----------------|
G|---0---0---0----|---0---0---0----|-------0---0---|-------0---0-----|
D|---2---2---2----|---2---2---2----|-------3---3---|-------3---3-----|
A|---3---3---3----|---3---3---3----|---------------|-----------------|
E|----------------|----------------|---------------|-----------------|



     1 + 2 + 3 +      1 + 2 + 3 +      1   2   3       1   2   3
e|----------------|----------------|---------------|-----------------|
B|-----3---3---3--|-----3---3---3--|-------1---1---|-------1---1-----|
G|---0---2---0----|---2---0---2----|---0-----------|---0-------------|
D|----------------|----------------|---------------|-----------------|
A|----------------|----------------|---------------|-----------------|
E|----------------|----------------|---------------|-----------------|
 |
 |                                         2   3           2   3
e|---1---1---1----|---1---1---1----|---------------|-----------------|
B|---0---0---0----|---0---0---0----|---------------|-----------------|
G|---0---0---0----|---0---0---0----|-------0---0---|-------0---0-----|
D|---0---0---0----|---0---0---0----|-------2---2---|-------2---2-----|
A|---2---2---2----|---2---2---2----|---------------|-----------------|
E|---3---3---3----|---3---3---3----|---------------|-----------------|
  

   1 + 2 + 3 +      1 + 2 + 3 +      1   2   3       1   2   3
e|----------------|----------------|---------------|-----------------|
B|-----1---1---1--|-----1---1---1--|-------0---0---|-------0---0-----|
G|---0---2---0----|---2---0---2----|---0-----------|---0-------------|
D|----------------|----------------|---------------|-----------------|
A|----------------|----------------|---------------|-----------------|
E|----------------|----------------|---------------|-----------------|
 |   
 |                                      2   3           2   3
e|---0---0---0----|---0---0---0----|---------------|-----------------|
B|---1---1---1----|---1---1---1----|---------------|-----------------|
G|---0---0---0----|---0---0---0----|-------0---0---|-------0---0-----|
D|---2---2---2----|---2---2---2----|-------2---2---|-------2---2-----|
A|---3---3---3----|---3---3---3----|---------------|-----------------|
E|----------------|----------------|---------------|-----------------|


     1 + 2 + 3 +      1   -   -        1 + 2 + 3 +       1   2   3
e|----------------|----------------|-----------------|----------------|
B|---0h1p0h1p0h1p |---0------------|---0h1p0h1p0h1p--|---0------------|
G|----------------|----------------|-----------------|-------2---0----|
D|----------------|----------------|-----------------|----------------|
A|----------------|----------------|-----------------|----------------|
E|----------------|----------------|-----------------|----------------|
 |
 |                        2   3                          1   -   -
e|----------------|-------2---2----|-----------------|----------------|
B|----------------|-------4---4----|-----------------|----------------|
G|----------------|----------------|-----------------|---0------------|
D|----------------|----------------|-----------------|---3------------|
A|----------------|----------------|-----------------|----------------|
E|----------------|----------------|-----------------|----------------|



     1 + 2 + 3 +      1 + 2 + 3 +      1   2   3       1   2   3
e|----------------|----------------|---------------|-----------------|
B|----13--13--13--|---13--13--13---|-------12--12--|-------12--12----|
G|--12--14--12----|-14--12--14-----|---12----------|---12------------|
D|----------------|----------------|---------------|-----------------|
A|----------------|----------------|---------------|-----------------|
E|----------------|----------------|---------------|-----------------|
 |
 |                                         2   3           2   3
e|---0---0---0----|---0---0---0----|---------------|-----------------|
B|---1---1---1----|---1---1---1----|---------------|-----------------|
G|---0---0---0----|---0---0---0----|-------0---0---|-------0---0-----|
D|---2---2---2----|---2---2---2----|-------3---3---|-------3---3-----|
A|---3---3---3----|---3---3---3----|---------------|-----------------|
E|----------------|----------------|---------------|-----------------|



     1 + 2 + 3 +     1 + 2 + 3 +       1   2    3      1   2    3 
e|----------------|----------------|---------------|-----------------|
B|-----15--15--15-|----15--15--15--|-------13---13-|-------13---13---|
G|---12--14--12---|--14--12--14----|---12----------|---12------------|
D|----------------|----------------|---------------|-----------------|
A|----------------|----------------|---------------|-----------------|
E|----------------|----------------|---------------|-----------------|
 |
 |                                         2   3           2   3
e|---1---1---1----|---1---1---1----|---------------|-----------------|
B|---0---0---0----|---0---0---0----|---------------|-----------------|
G|---0---0---0----|---0---0---0----|-------0---0---|-------0---0-----|
D|---0---0---0----|---0---0---0----|-------2---2---|-------2---2-----|
A|---2---2---2----|---2---2---2----|---------------|-----------------|
E|---3---3---3----|---3---3---3----|---------------|-----------------|


    1 + 2 + 3 +      1 + 2 + 3 +      1   2   3       1   2   3
e|----------------|----------------|---------------|-----------------|
B|----13--13--13--|---13--13--13---|-------12--12--|-------12--12----|
G|--12--14--12----|-14--12--14-----|---12----------|---12------------|
D|----------------|----------------|---------------|-----------------|
A|----------------|----------------|---------------|-----------------|
E|----------------|----------------|---------------|-----------------|
 |
 |                                         2   3           2   3
e|---0---0---0----|---0---0---0----|---------------|-----------------|
B|---1---1---1----|---1---1---1----|---------------|-----------------|
G|---0---0---0----|---0---0---0----|-------0---0---|-------0---0-----|
D|---2---2---2----|---2---2---2----|-------2---2---|-------2---2-----|
A|---3---3---3----|---3---3---3----|---------------|-----------------|
E|----------------|----------------|---------------|-----------------|



     1  +  2  +  3  +      1   -   -        1  +  2  +  3  +    1   2   3
e|---------------------|----------------|-------------------|----------------|
B|---12h13p12h13p12h13-|---12-----------|-12h13p12h13p12h13-|---12-----------|
G|---------------------|----------------|-------------------|-------14---12--|
D|---------------------|----------------|-------------------|----------------|
A|---------------------|----------------|-------------------|----------------|
E|---------------------|----------------|-------------------|----------------|
 |
 |                             2   3                            1   -   -
e|---------------------|-------2---2----|-------------------|----------------|
B|---------------------|-------4---4----|-------------------|----------------|
G|---------------------|----------------|-------------------|---0------------|
D|---------------------|----------------|-------------------|---3------------|
A|---------------------|----------------|-------------------|----------------|
E|---------------------|----------------|-------------------|----------------|

Repeat Part A one more time. End on the first fermata.



************************************

| h  Hammer-on
| p  Pull-off
 

************************************
Suggest correction
Creating personal tab
Creating personal tab
You can edit any tab online and save it as your Personal.

You can edit, replace or remove any tab part or add personal notes – all changes will be seen only by you.

Personal tabs can be accessed anytime from any device, even offline.
Learn more »
Give kudos to tab author, rate the tab!
1 2 3 4 5
comments
print report bad tab
guest
You may want to rate the tab now too:
select rating
Wanna post a correction for this tab? Suggest correction