Oops, an error
Loading. Please wait.

Big Jumps Chords

20,041 views 9 this week
1 commentread comment
1 2 3 4 5
x 7
add to favorites
launch autoscroll
font size
0
reset
transpose
0
reset
simplify chords
display chords
guitar tuner
Autoscroll
slow
fast
+/-
esc
set tempo
stop
Help us to improve Ultimate-Guitar.com Take our survey!
×
Author
-------------------------------------------------------------------------------
			     Big Jumps - Emiliana Torrini 
-------------------------------------------------------------------------------
Tabbed by: Vangogh161
Tuning: Standard


Intro: D

D                                   G
I walked all morning to lift my heart,
           C                            Bm
'Cause the world keeps dancing with the paperman.
  D                      G
I love you never talk in dreams,
C                               Bm
But now it's here your happiness is real.


            D
Oh make some big jumps, big jumps,
       G
You're afraid to break some bones.
                C
Come on make some big jumps, big jumps,
BM
Life is yours alone.	
                D                          G		                  C                    Bm 
You hold your head up, your head up high, like you think I do. Do, do do, do do, do, do, do.


Sometimes I feel so confused,
I'm under the illusion that I have to choose.
I love you always know the way,
The way back home always is the same.

Oh make some big jumps, big jumps,
You're afraid to break some bones.
Come on make some big jumps, big jumps,
Life is yours alone.
You hold your head up, your head up high, like you think I do.


D          Bm
Tick-tock, this clockwork will stop,
F#m
You're the key for winding up my heart.
D            Bm
Brick-brack, if you don't wind me up,
F#m
The sky will lie upon me like a passed-out drunk.

G                   Bm           A
Without you I would never rise again.
G                   Bm		????
Without you I would never rise.

Hey there sunshine lift my heart,
I know life is long but it goes so fast.
I love you never feeling old,
You never bought the rubbish that they sold.

Oh make some big jumps, big jumps,
You're afraid to break some bones.
Come on make some big jumps, big jumps,
Life is yours alone.
You hold your head up, your head up high, like you think I do.

Oh make some big jumps, big jumps,
You're afraid to break some bones.
Come on make some big jumps, big jumps,
Life is yours alone.
You hold your head up, your head up high, like you think I do.


Picking patterns: 

	      D
e|--------------------------|
B|--------3----------3------|
G|--------2----------2------|
D|-----4-----4-----4-----4--|
A|--5-----------5-----------|
E|--------------------------|
	      G
e|--------------------------|
B|--------3----------3------|
G|--------4----------4------|
D|-----5-----5-----5-----5--|
A|--5-----------5-----------|
E|--------------------------|
	      C
e|--------------------------|
B|--------5----------5------|
G|--------5----------5------|
D|-----5-----5-----5-----5--|
A|--7-----------7-----------|
E|--------------------------|
	      Bm
e|--------------------------|
B|--------3----------3------|
G|--------4----------4------|
D|-----4--4--4-----4-4---4--|
A|--2-----------2-----------|
E|--------------------------|
	     F#m
e|--------------------------|
B|--------------------------|
G|--------2----------2------|
D|--------4----------4------|
A|-----4-----4-----4-----4--|
E|--2-----------2-----------|

===============================================================================
Suggest correction
comments
print report bad tab
1 comment total.
0 reply
purpletrees16 20 Jun 17, 2009 10:20 AM

Thank you!!!

guest
You may want to rate the tab now too:
select rating
Wanna post a correction for this tab? Suggest correction