Oops, an error
Loading. Please wait.

Sunnyroad Tab

version 3
version 3

Whole song

9,487 views 39 this week
no commentswrite comment
1 2 3 4 5
x 7
add to favorites
launch autoscroll
font size
0
reset
how to read this tab
guitar tuner
Autoscroll
slow
fast
+/-
esc
set tempo
stop
Help us to improve Ultimate-Guitar.com Take our survey!
×
Author
Difficulty
intermediate
Standard Tuning

[Intro]
e|----5--3----|-0----0~~~~~-|------------|------|
B|------------|-------------|-3----5---2-|-(2)--|
G|----5--4----|-2~~~~~~~~~~-|------------|------|
D|------------|-------------|-3----5---2-|-(2)--|
A|-0----------|-------------|-1----3---0-|------|
E|------------|-------------|------------|------|
        
e|----5--3----|-0----0~~~~~-|------------|------|
B|------------|-------------|-3----5---2-|-(2)--|
G|----5--4----|-2~~~~~~~~~~-|------------|------|
D|------------|-------------|-3----5---2-|-(2)--|
A|-0----------|-------------|-1----3---0-|------|
E|------------|-------------|------------|------|

e|----5--3----|-0----0~~~~~-|------------|-0-----|
B|------------|-------------|-3----5---2-|-------|
G|----5--4----|-2~~~~~~~~~~-|------------|-------|
D|------------|-------------|-3----5---2-|-------|
A|-0----------|-------------|-1----3---0-|-------|
E|------------|-------------|------------|---0h3-|
        
e|----5--3----|-0----0~~~~~-|------------|------|
B|------------|-------------|-3----5---2-|-(2)--|
G|----5--4----|-2~~~~~~~~~~-|------------|------|
D|------------|-------------|-3----5---2-|-(2)--|
A|-0----------|-------------|-1----3---0-|------|
E|------------|-------------|------------|------|

[Verse]
   Am7       C    Csus4  C         
e|-----0-|-----0-|---0---0---0-|-------|
B|---1---|---1---|---1---1---1-|-0h1-0-|
G|---0---|---0---|---0---0---0-|-------|
D|---2---|---2---|-3---2-------|-0h2-0-|
A|-0-----|-------|---------3---|-------|
E|-------|-3-----|-------------|-------| 

[Chorus]
   C       Em      Fmaj7       D7      
e|-----0-|-----0-|---0----0--|------3p2-0---|
B|---1---|---0---|---1----1--|-1~~~-------1-|
G|---0---|---1---|---2----2--|-2~~~---------|
D|---2---|---2---|-3-----2---|-0~~~---------|
A|-3-----|-2-----|-----------|--------------|
E|-------|-------|-----------|--------------|

[Instrumental]
e|----5--3----|-0----0~~~~~-|------------|------|
B|------------|-------------|-3----5---2-|-(2)--|
G|----5--4----|-2~~~~~~~~~~-|------------|------|
D|------------|-------------|-3----5---2-|-(2)--|
A|-0----------|-------------|-1----3---0-|------|
E|------------|-------------|------------|------|
        
e|----5--3----|-0----0~~~~~-|------------|------|
B|------------|-------------|-3----5---2-|-(2)--|
G|----5--4----|-2~~~~~~~~~~-|------------|------|
D|------------|-------------|-3----5---2-|-(2)--|
A|-0----------|-------------|-1----3---0-|------|
E|------------|-------------|------------|------|

e|----5--3----|-0----0~~~~~-|------------|-0-----|
B|------------|-------------|-3----5---2-|-------|
G|----5--4----|-2~~~~~~~~~~-|------------|-------|
D|------------|-------------|-3----5---2-|-------|
A|-0----------|-------------|-1----3---0-|-------|
E|------------|-------------|------------|---0h3-|
        
e|----5--3----|-0----0~~~~~-|------------|------|
B|------------|-------------|-3----5---2-|-(2)--|
G|----5--4----|-2~~~~~~~~~~-|------------|------|
D|------------|-------------|-3----5---2-|-(2)--|
A|-0----------|-------------|-1----3---0-|------|
E|------------|-------------|------------|------|

[Verse] (x6)
   Am7       C    Csus4  C         
e|-----0-|-----0-|---0---0---0-|-------|
B|---1---|---1---|---1---1---1-|-0h1-0-|
G|---0---|---0---|---0---0---0-|-------|
D|---2---|---2---|-3---2-------|-0h2-0-|
A|-0-----|-------|---------3---|-------|
E|-------|-3-----|-------------|-------| 
   
Wrote you this
I hope you got it safe
It's been so long
I don't know what to say
I've travelled 'round
Through deserts on my horse
But jokes aside
I wanna come back home  
                
[Chorus]
   C       Em      Fmaj7       D7      
e|-----0-|-----0-|---0----0--|------3p2-0---|
B|---1---|---0---|---1----1--|-1~~~-------1-|
G|---0---|---1---|---2----2--|-2~~~---------|
D|---2---|---2---|-3-----2---|-0~~~---------|
A|-3-----|-2-----|-----------|--------------|
E|-------|-------|-----------|--------------| 
  
You know that night
I said I had to go      
                
[Verse]
   Am7       C    Csus4  C         
e|-----0-|-----0-|---0---0---0-|-------|
B|---1---|---1---|---1---1---1-|-0h1-0-|
G|---0---|---0---|---0---0---0-|-------|
D|---2---|---2---|-3---2-------|-0h2-0-|
A|-0-----|-------|---------3---|-------|
E|-------|-3-----|-------------|-------| 

You said you'd meet me
On the sunny road
                
[Instrumental]
e|----5--3----|-0----0~~~~~-|------------|------|
B|------------|-------------|-3----5---2-|-(2)--|
G|----5--4----|-2~~~~~~~~~~-|------------|------|
D|------------|-------------|-3----5---2-|-(2)--|
A|-0----------|-------------|-1----3---0-|------|
E|------------|-------------|------------|------|
        
e|----5--3----|-0----0~~~~~-|------------|------|
B|------------|-------------|-3----5---2-|-(2)--|
G|----5--4----|-2~~~~~~~~~~-|------------|------|
D|------------|-------------|-3----5---2-|-(2)--|
A|-0----------|-------------|-1----3---0-|------|
E|------------|-------------|------------|------|

e|----5--3----|-0----0~~~~~-|------------|-0-----|
B|------------|-------------|-3----5---2-|-------|
G|----5--4----|-2~~~~~~~~~~-|------------|-------|
D|------------|-------------|-3----5---2-|-------|
A|-0----------|-------------|-1----3---0-|-------|
E|------------|-------------|------------|---0h3-|
        
e|----5--3----|-0----0~~~~~-|------------|------|
B|------------|-------------|-3----5---2-|-(2)--|
G|----5--4----|-2~~~~~~~~~~-|------------|------|
D|------------|-------------|-3----5---2-|-(2)--|
A|-0----------|-------------|-1----3---0-|------|
E|------------|-------------|------------|------|  

It's time, meet me 
on the sunny road (x2)
                
[Verse] (x6)
   Am7       C    Csus4  C         
e|-----0-|-----0-|---0---0---0-|-------|
B|---1---|---1---|---1---1---1-|-0h1-0-|
G|---0---|---0---|---0---0---0-|-------|
D|---2---|---2---|-3---2-------|-0h2-0-|
A|-0-----|-------|---------3---|-------|
E|-------|-3-----|-------------|-------|  
   
I never married
Never had those kids
I loved too many
Now heaven's closed its gates
I know I'm bad
To jump on you like this
Some things don't change
My middle name's still 'Risk'

[Chorus]
   C       Em      Fmaj7       D7      
e|-----0-|-----0-|---0----0--|------3p2-0---|
B|---1---|---0---|---1----1--|-1~~~-------1-|
G|---0---|---1---|---2----2--|-2~~~---------|
D|---2---|---2---|-3-----2---|-0~~~---------|
A|-3-----|-2-----|-----------|--------------|
E|-------|-------|-----------|--------------|  
 
I know that night
So long long time ago
                
[Verse]
   Am7       C    Csus4  C         
e|-----0-|-----0-|---0---0---0-|-------|
B|---1---|---1---|---1---1---1-|-0h1-0-|
G|---0---|---0---|---0---0---0-|-------|
D|---2---|---2---|-3---2-------|-0h2-0-|
A|-0-----|-------|---------3---|-------|
E|-------|-3-----|-------------|-------| 

Will you still meet me
On the sunny road ?
                
[Instrumental]
e|----5--3----|-0----0~~~~~-|------------|------|
B|------------|-------------|-3----5---2-|-(2)--|
G|----5--4----|-2~~~~~~~~~~-|------------|------|
D|------------|-------------|-3----5---2-|-(2)--|
A|-0----------|-------------|-1----3---0-|------|
E|------------|-------------|------------|------|
        
e|----5--3----|-0----0~~~~~-|------------|------|
B|------------|-------------|-3----5---2-|-(2)--|
G|----5--4----|-2~~~~~~~~~~-|------------|------|
D|------------|-------------|-3----5---2-|-(2)--|
A|-0----------|-------------|-1----3---0-|------|
E|------------|-------------|------------|------|

e|----5--3----|-0----0~~~~~-|------------|-0-----|
B|------------|-------------|-3----5---2-|-------|
G|----5--4----|-2~~~~~~~~~~-|------------|-------|
D|------------|-------------|-3----5---2-|-------|
A|-0----------|-------------|-1----3---0-|-------|
E|------------|-------------|------------|---0h3-|
        
e|----5--3----|-0----0~~~~~-|------------|------|
B|------------|-------------|-3----5---2-|-(2)--|
G|----5--4----|-2~~~~~~~~~~-|------------|------|
D|------------|-------------|-3----5---2-|-(2)--|
A|-0----------|-------------|-1----3---0-|------|
E|------------|-------------|------------|------|  

It's time, meet me 
on the sunny road (x2)
                
[Verse] (x4)
   Am7       C    Csus4  C         
e|-----0-|-----0-|---0---0---0-|-------|
B|---1---|---1---|---1---1---1-|-0h1-0-|
G|---0---|---0---|---0---0---0-|-------|
D|---2---|---2---|-3---2-------|-0h2-0-|
A|-0-----|-------|---------3---|-------|
E|-------|-3-----|-------------|-------|  
    
Well, this is it
I'm running out of space
Here is my address
And number just in case 
                
[Chorus]
   C       Em      Fmaj7       D7      
e|-----0-|-----0-|---0----0--|------3p2-0---|
B|---1---|---0---|---1----1--|-1~~~-------1-|
G|---0---|---1---|---2----2--|-2~~~---------|
D|---2---|---2---|-3-----2---|-0~~~---------|
A|-3-----|-2-----|-----------|--------------|
E|-------|-------|-----------|--------------|
  
This time as one
We'll find which way to go
                
[Verse]
   Am7       C    Csus4  C         
e|-----0-|-----0-|---0---0---0-|-------|
B|---1---|---1---|---1---1---1-|-0h1-0-|
G|---0---|---0---|---0---0---0-|-------|
D|---2---|---2---|-3---2-------|-0h2-0-|
A|-0-----|-------|---------3---|-------|
E|-------|-3-----|-------------|-------| 

Now come and meet me 
On the sunny road ...


************************************

| ~    Vibrato
| (n)  Ghost note
| h    Hammer-on
| p    Pull-off

************************************
Suggest correction
comments
print report bad tab
guest
You may want to rate the tab now too:
select rating
Wanna post a correction for this tab? Suggest correction