Oops, an error
Loading. Please wait.

Never Play Tab

2,563 views 3 this week
no commentswrite comment
1 2 3 4 5
please rate
add to favorites
launch autoscroll
font size
0
reset
how to read this tab
guitar tuner
Tab Pro tools
  • play this tab
  • loop segment
  • change instrument
  • show fretboard
  • metronome
×
Best way to learn
"Never Play"
Autoscroll
slow
fast
+/-
esc
set tempo
stop
Contributor
Difficulty
xxxxxxxxxxxxxxxxxxxxxxxxxxxxxxxxxxxxxxxxxxxxxxxxxxxxxxxxxxxxxxxxxxxxxxxxxxxxxxxxxxxxxxxxxxxxxxxxxx
                                        N e v e r   P l a y
                                  E y e   T o   E y e   ( 2 0 1 1 )
                                E M I L Y   A N D   T H E   W O O D S
xxxxxxxxxxxxxxxxxxxxxxxxxxxxxxxxxxxxxxxxxxxxxxxxxxxxxxxxxxxxxxxxxxxxxxxxxxxxxxxxxxxxxxxxxxxxxxxxxx


                   +--------------------------PLEASE NOTE--------------------------+
                   + This file is the work of Jordan Lapping and represents his    +
                   + transcription of the song. You may only use this file for     +
                   + private study, scholarship, or research. The contents may not +
                   + be duplicated for use with other websites without written     +
                   + permission. Thank you for understanding. Enjoy.               +
                   +---------------------------------------------------------------+


Tabbed by Jordan Lapping

Tuning: E (Standard), Capo 5th Fret


 CHORDS USED [relative to capo]:
     Am     F/A      C    Cmaj7/B Cmaj13/B
e]--(0)-----(1)-----(0)-----(0)-----(0)--|
B]---1-------1-------1-------1-------1---|
G]---2-------2-------0-------0-------2---|
D]---2-------3-------2-------2-------0---|
A]---0-------0-------3-------2-------2---|
E]---------------------------------------|



 INTRO:
    Am                       F/A
e]----------------------------------------------------|
B]--------1-----------1------------1-----------1------|
G]------2---2-------2---2--------2---2-------2---2----|
D]----2-------2---2-------0----3-------3---3-------0--|
A]--0-----------0------------0-----------0------------|
E]----------------------------------------------------|

    C                        Cmaj7/B
e]----------------------------------------------------|
B]--------1-----------1------------1-----------1------|
G]------0---0-------0---0--------0---0-------0---0----|
D]----2-------2---2-------0----2-------2---2-------0--|
A]--3-----------3------------2-----------2------------|
E]----------------------------------------------------|



 VERSE 1:
   Am                               F/A
  Never play by the stairs, you're bound to fall down
   C                                Cmaj7/B
  Never play by the hillside, might slip and break your crown
   Am                             F/A
  Never play by the fire, it's a danger to your health
   C                                 Cmaj7/B
  Never play by the wall, might fall and break yourself



 INTERLUDE:
Am - F/A - C - Cmaj7/B



 VERSE 2:
   Am                                 F/A
  Never play by the river, you might tumble in and drown
   C                           Cmaj7/B
  Never play by the field, get filthy, dirty and brown
   Am                             F/A
  Never play by yourself, it's a danger to be alone
   C                                 Cmaj7/B
  Never stray too far away, it's not safe outside of home



 INTERLUDE:
Am - F/A - C - Cmaj7/B



 BRIDGE:
  Am              F/A
  I didn't ask to be born
      C                         Cmaj7/B
  And I don't think I'll ask to die
  Am                    F/A
  I didn't ask for the ground beneath my feet
    C                    Cmaj7/B
  I   didn't ask for the sky



 OUTRO:
  Am                  F/A
  All that I ask, my darling
  C                        Cmaj7/B
  All that I really ask of you

    Am                       F/A
e]----------------------------------------------------|
B]--------1-----------1------------1-----------1------|
G]------2---2-------2---2--------2---2-------2---2----|
D]----2-------2---2-------0----3-------3---3-------0--|
A]--0-----------0------------0-----------0------------|
E]----------------------------------------------------|

    C            Cmaj13/B     C
e]----------------------------------------------------|
B]--------1------------1------------------------------|
G]------0---0--------2---2----------------------------|
D]----2-------2----0-------0--------------------------|
A]--3------------2------------3-----------------------|
E]----------------------------------------------------|

  Am                  F/A
  All that I ask, my darling
  C          Cmaj13/B        C
  Is that you stay here with me




xxxxxxxxxxxxxxxxxxxxxxxxxxxxxxxxxxxxxxxxxxxxxxxxxxxxxxxxxxxxxxxxxxxxxxxxxxxxxxxxxxxxxxxxxxxxxxxxxx

xxxxxxxxxxxxxxxxxxxxxxxxxxxxxxxxxxxxxxxxxxxxxxxxxxxxxxxxxxxxxxxxxxxxxxxxxxxxxxxxxxxxxxxxxxxxxxxxxx
comments
We did not receive enough feedback on this tab! Please rate:
print report bad tab
1 2 3 4 5
I want to post or [tab]
guest
You may want to rate the tab now too:
select rating
Please do not post tabs as comments. Select "correction" instead!