Oops, an error
Loading. Please wait.

Other Side Of The Screen tab

1,410 views 1 this week
no commentswrite comment
1 2 3 4 5
2 more votes to show rating
add to favorites
×
Save as Personal and add changes to this tab that will be seen only by you. Learn more ›
×
You can save this tab as Personal to edit and correct it or add notes. All changes will be seen only by you. Learn more »
launch autoscroll
font size
0
reset
how to read this tab
guitar tuner
edit
Autoscroll
slow
fast
+/-
esc
set tempo
stop
-------------------------------------------------------------------------------
                             SONG NAME - Band Name
-------------------------------------------------------------------------------
Tabbed by: IngFish 117
In this tab i will be posting a variety of ways that i play this song, as people who 
like this song you will be
aware that this is no guitar in it so i have just made some finger picking patterns that 
can either go over the
 top of the original song or serve as a stand alone version of the song. i will post patterns of varying
difficulty to play and would advise mixing between the different patterns to achieve the best
results as some of the patterns work better on different parts of the song.
if you have any comments please let me know, and remember these tabs are relative to capo 5
Tuning:Capo 5
        based On G      Based On D      Based On Em     Based On C
e|--3------3-------------2------3--------0---------------------0----------------------|
B|--0---0-0-0------------3--3-3----------0-0-----0-------------1-1---1----------------|
G|--0--0-----------------x-2--------------0-----0---------------0------0--------------|
D|-------0---------------0---0--------------0h22------------------0h2-2---------------|
A|--2--------------------------0---------2---------------------3----------------------|
E|------------------------------------------------------------------------------------|

e|-----3---3---3-----------2---3----2-0h22----0--3--0--3-3----0------3-0--3-0h3--|
B|----0--0--0---0---------3--3---3---3-------0-0--0--0-------1-1-----------------|
G|---0----0--0---0--0-0--2----2---2---3-----0---0--0--0-0---0---0-0-0-0--0-0-----|
D|-----------------0---------------------------------------------2---------------|
A|--2----------------2--0------------------2---------------3-------3-------------|
E|-------------------------------------------------------------------------------|
 During the bridge i find more block style chords are useful so i would play it like this.
 play c in the same way Em is played
e|---3---3---3----3---3--3-3-3----2-----0h2-3-3-3-3-3-3--|
B|---3--33--33--3-3---3--3-3-3--3-3---3-3---3-3-3-3-3-3--|
G|---0-0-0-0-0-0--0-0-0-00-0-2-2--2--2--2---0-0-0-0-0-0--|
D|-------0------------0------0----0-----0---2---2---2-2--|
A|---2-------2-----------2--------------------2---2------|
E|----------------3--------3-----------------------------|

the chorus of the song has the line now i see, you're all i need the Now I See is G Em 
D, and you're all i need
is G Em D C the rest of the song excluding intro and instrumental is G D Em C, listen to 
the song for timings


************************************

| /   slide up
| \   slide down
| h   hammer-on
| p   pull-off
| ~   vibrato
| +   harmonic
| x   Mute note
| b   Bend
| pb  Pre-bend
| br  Bend release
| pbr Pre-bend release
| brb Bend release bend

************************************

            
            
Suggest correction
Creating personal tab
Creating personal tab
You can edit any tab online and save it as your Personal.

You can edit, replace or remove any tab part or add personal notes – all changes will be seen only by you.

Personal tabs can be accessed anytime from any device, even offline.
Learn more »
Give kudos to tab author, rate the tab!
1 2 3 4 5
comments
print report bad tab
guest
You may want to rate the tab now too:
select rating
Wanna post a correction for this tab? Suggest correction