Oops, an error
Loading. Please wait.

Broadcast This Bass Tab

685 views 1 this week
no commentswrite comment
1 2 3 4 5
please rate
add to favorites
launch autoscroll
font size
0
reset
guitar tuner
Tab Pro tools
  • play this tab
  • loop segment
  • change instrument
  • show fretboard
  • metronome
×
Best way to learn
"Broadcast This"
Autoscroll
slow
fast
+/-
esc
set tempo
stop
Contributor
Difficulty
intermediate
-------------------------------------------------------------------------------
                             Broadcast This (Bass Solo) - Emily's Army
-------------------------------------------------------------------------------

Tabbed By : LC
e-mail: canadianboy9@gmail.com

Tuning: Standard
THIS VERSION IS REVISED! There were mistakes in the previous one!

G|-----------------------------------------------------------------------------|
D|-----------2-3-33-3-2-0------------------------------------------------------|
A|-3-33-3333--------------2-3-33-3-2-0-----------------------------------------|
E|--------------------------------------3--333-2-2-333-------------------------|

G|-----------------------------------------------------------------------------|
D|-----------2-3-33-3-2-0---------------------5---55--5-----5------------------|
A|-3-33-3333--------------2-3-33-3-2-0-----------------------------------------|
E|--------------------------------------3-33-3--33---33-33-3-------------------|




| /  slide up
| \  slide down
| h  hammer-on
| p  pull-off
| ~  vibrato
| +  harmonic
| x  Mute note
===============================================================================
comments
We did not receive enough feedback on this tab! Please rate:
print report bad tab
1 2 3 4 5
I want to post or [tab]
guest
You may want to rate the tab now too:
select rating
Please do not post tabs as comments. Select "correction" instead!