Oops, an error
Loading. Please wait.

Broadcast This Tab

3,985 views 6 this week
no commentswrite comment
1 2 3 4 5
excellent!
x 5
add to favorites
launch autoscroll
font size
0
reset
how to read this tab
guitar tuner
Tab Pro tools
  • play this tab
  • loop segment
  • change instrument
  • show fretboard
  • metronome
Autoscroll
slow
fast
+/-
esc
set tempo
stop
Contributor
Difficulty
Intro:
e|--3-3-3-5-3-----8—8--8-10-8------3-3-3-5-3-----13-13-12-10-8------|
B|--5-5-------5---10-10--------10---5-5-------5---12-12-12-12-8-----|
G|------------------------------------------------------------------|
D|------------------------------------------------------------------|
A|------------------------------------------------------------------|
E|------------------------------------------------------------------|
Chords
e|---------------------|
B|--C------G------F----|
G|--5------------------|
D|--5------5------3----|
A|--3------5------3----|
E|---------3------1----|

C                             F
I don't wanna listen To what's on the radio
C                    G
Boring music, Depressing talkshows
C                           F
But I don't need it, I got my record store
C                   G
Punk music, and vinyl galore
          F                         G
Well it would be nice to hear something
         C
That I musically enjoy
      F                     G                         C
So I bid you a due then to broadcast this

F   C   G

C                             F
Whatever happened, To pirate radio
C           G
K.C.U.F. and Radio Rock
C                              F
So bring it back and, I'll stop lamenting
C                                 G
It's just the point that, You're misrepresenting.
          F                         G
Well it would be nice to hear something
          C
That I musically enjoy
      F                     G                          C
So I bid you a due then to broadcast this

F   C   G

[Solo]

e|----------------------------------------------------------------------------------|
B|--5-5-3-5-6-5-3-5--------------------------5-5-3-5-6-5-3-5------------------------|
G|-------------------------5-5-5-5-4-5-7-5-----------------------7-7-7-7-6-7-9-7----|
D|----------------------------------------------------------------------------------|
A|----------------------------------------------------------------------------------|
E|----------------------------------------------------------------------------------|

e|----------------------------------------------------------3-----3----------------|
B|--5-5-3-5-6-5-3-5------------------------5-5-3-5-6-5-3-5-6b8--6b8--6b8-----------|
G|------------------------5-5-5-5-4-5-7-5------------------------------------------|
D|---------------------------------------------------------------------------------|
A|---------------------------------------------------------------------------------|
E|---------------------------------------------------------------------------------|

          F                         G
Well it would be nice to hear something
          C
That I musically enjoy
       F                   G                          C
So I bid you a due then to broadcast this

F   C   G

C                             F
I don't wanna listen, To what's on the radio
C                   G
Boring music, Depressing talkshows
    F                       G
It would be nice to hear something
          C
That I musically enjoy
       F                    G                         C
So I bid you a due then to broadcast this
comments
print report bad tab
I want to post or [tab]
guest
You may want to rate the tab now too:
select rating
Please do not post tabs as comments. Select "correction" instead!