Oops, an error
Loading. Please wait.

8 Mile Tab

version 3
version 3

Whole song

Interactive

7,060 views 6 this week
1 commentread comment
1 2 3 4 5
please rate
add to favorites
launch autoscroll
font size
0
reset
how to read this tab
guitar tuner
Autoscroll
slow
fast
+/-
esc
set tempo
stop
Help us to improve Ultimate-Guitar.com Take our survey!
×
Author
Difficulty
novice
E---------------------------------------------------------------------|
A---------------------------------------------------------------------|
D---------------------------------------------------------------------|
G--2-----------2-----------2-----------2------------------------------|
B-----5--3--1-----5--3--1-----5--3--1-----5--3--5--6--3--5--1--3--0---|
e---------------------------------------------------------------------|

Just reapeat this through the song now the next bit that goes over the top


E----------------------------------------------------------------------|
A----------------------------------------------------------------------|
D----------------------------------------------------------------------|
G----------------------------------------------------------------------|
B-----------------------------------15--13--15--18--17--18--15--18--18-|
e--17--12--17---17--12--17--17--12-------------------------------------|


E---------------------------------------------|
A---------------------------------------------|
D---------------------------------------------|
G---------------------------------------------|
B--17--13--15--12--13--10---------------------|
e---------------------------------------------|


And thats it 100% done 100% correct it took me a while to work this out but i got there 
the end Enjoy!!!!


Tabbed by Rushdown
Suggest correction
Give kudos to tab author, rate the tab!
1 2 3 4 5
comments
print report bad tab
1 comment total.
0 reply
FuzzyDan 67 wrote on June 13 2009, 01:43 pm

this is the easier way the first part :p

E---------------------------------------------------------------------|
A---------------------------------------------------------------------|
D---------------------------------------------------------------------|
G--2-----------2-----------2-----------2-----------1------------------|
B-----0--3--1-----0--3--1-----0--3--1-----0--3--0-----3--0--1--3--0---|
e---------------------------------------------------------------------|

Moving this a little down the guitar neck prolly'll make it easier to play
E----------------------------------------------------------------------|
A----------------------------------------------------------------------|
D----------------------------------------------------------------------|
G----------------------------------------------------------------------|
B-----------------------------------15--13--15--18--17--18--15--18--18-|
e--17--12--17---17--12--17--17--12-------------------------------------|

E---------------------------------------------|
A---------------------------------------------|
D---------------------------------------------|
G---------------------------------------------|
B--17--13--15--12--13--10---------------------|
e---------------------------------------------|

guest
You may want to rate the tab now too:
select rating
Please do not post tabs as comments. Select "correction" instead!