Oops, an error
Loading. Please wait.

97 Bonnie And Clyde Bass Tab

version 2
version 2

Whole song

330 views 1 this week
no commentswrite comment
1 2 3 4 5
please rate
add to favorites
launch autoscroll
font size
0
reset
guitar tuner
Autoscroll
slow
fast
+/-
esc
set tempo
stop
Help us to improve Ultimate-Guitar.com Take our survey!
×
Everything you need to play this song is listed below. The tab is listed in order, for 
the most part, the section 7-3-0 is used a couple different times. You should be able to 
figure it out in about 5 minutes or less.

G :-----------------:
D :--0--3--7--------:
A :-----------------:
E :-----------------:

G :-----------------:
D :--7--3--0--------:
A :-----------------:
E :-----------------:

G :-----------------:
D :--5--3--5--------:
A :-----------------:
E :-----------------:

G :-----------------:
D :--2--2--2--------:
A :-----------------:
E :-----------------:

Tabbed by BM
Suggest correction
Give kudos to tab author, rate the tab!
1 2 3 4 5
comments
print report bad tab
guest
You may want to rate the tab now too:
select rating
Please do not post tabs as comments. Select "correction" instead!