Oops, an error
Loading. Please wait.

97 Bonnie And Clyde Bass Tab

version 3
version 3

Whole song

102 views 1 this week
no commentswrite comment
1 2 3 4 5
please rate
add to favorites
launch autoscroll
font size
0
reset
guitar tuner
Autoscroll
slow
fast
+/-
esc
set tempo
stop
Help us to improve Ultimate-Guitar.com Take our survey!
×
Difficulty
novice
-------------------------------------------------------------------------------
                             97 Bonnie and Clyde - Eminem
-------------------------------------------------------------------------------
Tabbed by: istarii
E-mail: thompson.luke@email.com

Tuning: Standard

G|-------------------------------------------------------------|
D|-------------------------------------------------------------|
A|---------7-----------------------------7---------------------|
E|-5---8----------5---8---5------5---8----------5---8---5------|


G|-------------------------------------------------------------|
D|----------------2--------------------------------------------|
A|-5---3---5----------3-----------5---3---5--------------------|
E|------------------------5---------------------5---8---5------|


Suggest correction
Give kudos to tab author, rate the tab!
1 2 3 4 5
comments
print report bad tab
guest
You may want to rate the tab now too:
select rating
Please do not post tabs as comments. Select "correction" instead!