Oops, an error
Loading. Please wait.

Airplanes Bass Tab

6,977 views 6 this week
no commentswrite comment
1 2 3 4 5
please rate
add to favorites
launch autoscroll
font size
0
reset
guitar tuner
Autoscroll
slow
fast
+/-
esc
set tempo
stop
Help us to improve Ultimate-Guitar.com Take our survey!
×
Author
Difficulty
Right this is the tab for airplanes but eminems version, the two versions are differnt 
use differnt notes.

iv tabbed both versions so the other will be up on here aswel

Iv tryed my best to write this out in a logical order but if your having trouble, theres 
link at the bottem to me playing this and it should make it more clear


intro (1st part)

Part a
G|----------------------------------------------------------|
D|----------------------------------------------------------|
A|-10-10-10-10-10-10-10-8-6-6-6-13-13-13-13-13--------------|
E|----------------------------------------------------------|

Part b - on the last note this time you drop to the 6 and slide back in to the 10
G|----------------------------------------------------------|
D|----------------------------------------------------------|
A|-10-10-10-10-10-10-10-8-6-6-6-13-13-13-13-6---------------|
E|----------------------------------------------------------|


Play part A again then.....

G|----------------------------------|
D|----------------------------------|
A|-10-10-10-10-10-10-10-8-6-6-6-13--|
E|----------------------------------|

Then when all the instroments come in....

Intro (2nd part)

G|-------------------------------------------| x3
D|-------------------------------------------| x3
A|-10-10-10-10-10-10-10-8-6-6-6-6-1-1-1-1----| x3
E|-------------------------------------------| x3

G|---------------------------------------|
D|---------------------------------------|
A|-10-10-10-10-10-10-10-8-6-6-6-6-1------|
E|---------------------------------------|


Verse 1

G|--------------------------|
D|--------------------------|
A|-13-13-13-13-12-12-12-12--|
E|--------------------------|


G|------------------------------------------------------|
D|------------------------------------------------------|
A|-10-----10-8-6-------------10------6-8-------6/13-13--|
E|-----------------6--------------6---------------------|


Then pay the intro (2nd part)

Verse 2

Come in with this

G|-----------|
D|-----------|
A|-12h13p12--|
E|-----------|


G|----------------------------------------------------------|
D|----------------------------------------------------------|
A|-10--8/10-8-6---6-8--10--8/10-8-6-6/13-13-13-13---10------|
E|--------------6-------------------------------------------|

Play chorus

Verse


Come in with this

G|--------------|
D|--------------|
A|-13-13-12-12--|
E|--------------|


G|----------------------------------------------------|
D|----------------------------------------------------|
A|-10--8\10-8-6---------10-----6-8-----6/13-13-13-13--|
E|--------------6------------6------------------------|


G|----------------------------------------------------|
D|----------------------------------------------------|
A|-10--8\10-8-6---------10-----6-8-----6/13-----------|
E|--------------6------------6------------------------|
-


This is an awesome song but a weird one to play on bass as your in and out of it. I have 
a vid which you can see here,...


http://www.youtube.com/watch?v=UKpNzVRXcrs


If you that link dosnt work when you come to click it, take a look here...


http://www.youtube.com/user/HarryHopkinson


youll also find a cover of the other version to with a link to that tab

Enjoy

Harry
Suggest correction
What's this?
You can suggest a correction to this tab. Community and Mods will review your correction and vote to approve or reject it.
comments
We did not receive enough feedback on this tab! Please rate:
print report bad tab
1 2 3 4 5
guest
You may want to rate the tab now too:
select rating
Please do not post tabs as comments. Select "correction" instead!