Oops, an error
Loading. Please wait.

As The World Turns Bass Tab

version 1
version 1

Whole song

1,169 views 1 this week
1 commentread comment
1 2 3 4 5
2 more votes to show rating
add to favorites
launch autoscroll
font size
0
reset
guitar tuner
Autoscroll
slow
fast
+/-
esc
set tempo
stop
Help us to improve Ultimate-Guitar.com Take our survey!
×
Author
Artist: Eminem
Song: As The World Turns
Album: Slim Shady LP
Tuning: Normal

G[---2--------------2----------------]
D[-0---0-2-3-5--0-3------------------]
A[--------------------0-3------------]
E[-----------------------------------]

Play it throughout the entire song.

Um, it keeps saying that it isn't long enough so i'm gonna put a bunch
of pointless BS here. k? Yeah.
If you want, IM me on AIM - SN= reverend earl
Suggest correction
Give kudos to tab author, rate the tab!
1 2 3 4 5
comments
print report bad tab
1 comment total.
0 reply
n0r3mac 32 Jan 05, 2012 02:47 AM

Dude this is completely off haha
It goes like this


G-------------------------------------
D----6----------4---------------2-----
A--4-----4-6-7----------2---4------2--
E--------------------------------------
[tab/]

guest
You may want to rate the tab now too:
select rating
Wanna post a correction for this tab? Suggest correction