Oops, an error
Loading. Please wait.

As The World Turns Bass Tab

version 2
version 2

Whole song

361 views 1 this week
1 commentread comment
1 2 3 4 5
please rate
add to favorites
launch autoscroll
font size
0
reset
guitar tuner
Autoscroll
slow
fast
+/-
esc
set tempo
stop
Help us to improve Ultimate-Guitar.com Take our survey!
×
Author
Difficulty
novice
#----------------------------------PLEASE NOTE--------------------------------#
#This file is the author's own work and represents their interpretation of the#
#song. You may only use this file for private study, scholarship, or research.#
#-----------------------------------------------------------------------------#

Tabbed by: derGesicht (dergesicht@googlemail.com)
Artist: Eminem
Album: Slim Shady LP
Song: As The World Turns
Tuning: Normal
Completed on: 01 December 2013

G|------------------------------------------------------------|
D|--------6---------------4-----------------------------------|
A|--4-----------4-6-7-------------------4-------7-------------|
E|--------------------------------7-------------------4-------|

Play it throughout the entire song.


If you tune each string a half step down, you can play it much easier:

Gb|--------2---------------0-----------------------------------|
Db|--0-----------0-2-3-------------------0-------3-------------|
Ab|--------------------------------3-------------------0-------|
Eb|------------------------------------------------------------|
Suggest correction
Give kudos to tab author, rate the tab!
1 2 3 4 5
comments
print report bad tab
1 comment total.
0 reply
nosbled 10 wrote on February 9 2014, 11:19 am

Very nice! Thanks.

guest
You may want to rate the tab now too:
select rating
Wanna post a correction for this tab? Suggest correction