Oops, an error
Loading. Please wait.

Ass Like That Bass

version 1
version 1

Whole song

2,993 views 3 this week
no commentswrite comment
1 2 3 4 5
2 more votes to show rating
add to favorites
launch autoscroll
font size
0
reset
guitar tuner
×
Best way to learn
"Ass Like That"
Autoscroll
slow
fast
+/-
esc
set tempo
stop
Difficulty
novice
tabed by estewarrior

standard tuning

the whole song is this way exept the chorus
------------8----------------|
-----------------------------|
----4-6----------------------|
--5--------------------------|

the chorus is this way

-----------------------------|
-----------------------------|
----4-6----------------------|
--5--------------------------|

i didnt remember when but i know in some part of the verse is like this

--------------8----------------|
-------------------------------|
------4-6----------------------|
-54-5--------------------------|
Suggest correction
Give kudos to tab author, rate the tab!
1 2 3 4 5
comments
print report bad tab
guest
You may want to rate the tab now too:
select rating
Wanna post a correction for this tab? Suggest correction