Oops, an error
Loading. Please wait.

Beautiful Tab

version 2
version 2

Intro

Whole song

Interactive

19,211 views 6 this week
2 commentsread comments
1 2 3 4 5
please rate
add to favorites
launch autoscroll
font size
0
reset
how to read this tab
guitar tuner
Autoscroll
slow
fast
+/-
esc
set tempo
stop
Help us to improve Ultimate-Guitar.com Take our survey!
×
I thought the intro was cool so I tabbed it out by ear.
For the ones who are curious about improvising over this, 
it's in the key of F# minor.



        F#m7          E5  F#m          F#7          E5  F#m

e|---------9----------------9------------9----------------9---|
B|--------10---------------10-----------10---------------10---|
G|---------9-----------9-x-11------------9-----------9-x-11---|
D|----11--11--------7--9-x-11-------11--11--------7--9-x-11---|
A|--9------9--5~-/9----7-x--9-----9------9--5~-/9----7-x--9---|
E|------------------------------------------------------------|

Fill:

e|--------------------|
B|--14-10h12p10-------|
G|--------------9-----|
D|----------------12--|
A|--------------------|
E|--------------------|

   D5     E5  Fdim    F#5       D5   E5

e|-----------------------------------------|
B|-----------------------------------------|
G|--7-x-7--9-----------11--------7----9----|
D|--7-x-7--9----9-x-9--11--------7----9----|
A|--5-x-5--7----8-x-8---9--------5----7----|
E|-----------------------------------------|
Suggest correction
Give kudos to tab author, rate the tab!
1 2 3 4 5
comments
print report bad tab
2 comments total.
0 reply
pearlJam_31490 691 wrote on June 6 2009, 02:10 am

not even in the right key

0 reply
RobG&D 76 wrote on July 27 2009, 07:43 am

however, it is one of the few tabs that acknowledge a diminished chord in the second part.

guest
You may want to rate the tab now too:
select rating
Wanna post a correction for this tab? Suggest correction