Oops, an error
Loading. Please wait.

Cleaning Out My Closet Tab

version 1
version 1

Solo

Whole song

Interactive

32,777 views 51 this week
7 commentsread comments
1 2 3 4 5
accurate
x 20
add to favorites
launch autoscroll
font size
0
reset
how to read this tab
guitar tuner
Tab Pro tools
  • play this tab
  • loop segment
  • change instrument
  • show fretboard
  • metronome
×
Best way to learn
"Cleaning Out My Closet"
Autoscroll
slow
fast
+/-
esc
set tempo
stop
Contributor
Title      : CLEANIN' OUT MY CLOSET
Artist     : Eminem
Album      : The Eminem Show
Tabbed by  : Fred Fajardo (weltall@lycos.com)

This is the song's guitar part. Tuning at standard (EADGBE)

All parts are played palm muted.

Riff 1 (played 2 times)
E------------------------------
B------------------------------
G----------2-------------------
D--------2---2-----------------
A--0-0-3-------3-2-------------
E------------------------------

Riff 2
E----------------------------------
B----------------------------------
G--------------------1-2-4-1-2-----
D--------2-3-2---------------------
A------3-------3-------------------
E--1-1-----------0-----------------
comments
print report bad tab
7 comments total. Showing first comments. show 1 bad comment
0 reply
senseless wrote on September 16 2002, 12:00 am

Nice!

+4 reply
Mudvayne1217 wrote on September 13 2005, 12:00 am

i think its pretty good but.....

instead of this:
E------------------------------
B------------------------------
G----------2-------------------
D--------2---2-----------------
A--0-0-3-------3-2-------------
E------------------------------

it should be this:
E-----------------------------
B-----------------------------
G-----------------------------
D--------2--2-----------------
A--0-0-3------3-2-------------
E-----------------------------

although your version sounds good when you play. i guess you could play it liek that too, it doesnt matter.

I want to post or [tab]
guest
You may want to rate the tab now too:
select rating
Please do not post tabs as comments. Select "correction" instead!