Oops, an error
Loading. Please wait.

Cleaning Out My Closet Tab

version 1
version 1

Whole song

Interactive

40,516 views 21 this week
3 commentsread comments
1 2 3 4 5
worth learning
x 9
add to favorites
launch autoscroll
font size
0
reset
how to read this tab
guitar tuner
Tab Pro tools
  • play this tab
  • loop segment
  • change instrument
  • show fretboard
  • metronome
×
Best way to learn
"Cleaning Out My Closet"
Autoscroll
slow
fast
+/-
esc
set tempo
stop
Rick Tuttle,email me if you have any changes
RickyT89@yahoo.com

E-----------------------------------
B-----------------------------------
G----------2-----------------2------
D------------2-----------------2----
A--0-0-2-3-----3-2---0-0-2-3-----3-2
E-----------------------------------

E-----------------------------------
B----------------------0------------
G------------------1h2---1h2--------
D----------3-2----------------------
A------0-2-----3-2------------------
E--1-1------------------------------
comments
print report bad tab
3 comments total.
+1 reply
creed-_21 wrote on October 4 2012, 09:25 am

this is how i play it. to me it sounds better than this let me know what you think

--------------------------
--------------------------
-----------2-------------
---------2---2-3-2------
-0-0-3-------------3-2-
-------------------------- play it however many times it sounds better to you then do this

-------------------------------------------------------------------
-1-3-1-3-1-5s4-5---1-3-1-3-1-3-5---------------------------
-----------------------------------------2-1-1-2-1-2-4-5-1-2-2(optional bend on last note)
--------------------------------------------------------------------
--------------------------------------------------------------------
--------------------------------------------------------------------

0 reply
creed-_21 wrote on October 4 2012, 09:29 am

the tab above on the second part i forgot to put a 2x after the note after the slide

0 reply
mervyn.fernande wrote on April 21 2013, 01:22 pm

this is the chorous of Cleaning of my closet
---------------------------------------------
-1-3-1-3-5s4-5----1-3-1-3-1-3---5------------
---------------------------------------------
---------------------------------------------
---------------------------------------------
---------------------------------------------

---------------------------------------------
1-3-1-3-1-3-5--------------------------------
-------------2---2-2-1---1-1-2-4-1-2---2-----
---------------------------------------------
---------------------------------------------
---------------------------------------------

I want to post or [tab]
guest
You may want to rate the tab now too:
select rating
Please do not post tabs as comments. Select "correction" instead!