Oops, an error
Loading. Please wait.

Cum On Everybody Bass Tab

version 2
version 2

Whole song

959 views 3 this week
no commentswrite comment
1 2 3 4 5
please rate
add to favorites
launch autoscroll
font size
0
reset
guitar tuner
Autoscroll
slow
fast
+/-
esc
set tempo
stop
Help us to improve Ultimate-Guitar.com Take our survey!
×
-------------------------------------------------------------------------------
			     Cum On Everybody - Eminem
-------------------------------------------------------------------------------

Tabbed By : Tad_Eats_People

Tuning: Standard (BEADG)

Verse
G|-------------------------------------------|
D|-------------------------------------------|
A|------------------------4-4-4------4-4-4---| X5
E|-2-2-2-—2h4-2-2-2---2h4--------2h4---------|
B|-------------------------------------------|

Chorus
G|---------------------------------------|
D|-------------------------4-4-----------|
A|---------4-4-----2-2-5-5-----5-5-------| X4
E|-2-2-5-5-----5-5-----------------------|
B|---------------------------------------|

Verse
G|-------------------------------------------|
D|-------------------------------------------|
A|------------------------4-4-4------4-4-4---| X3
E|-2-2-2-—2h4-2-2-2---2h4--------2h4---------|
B|-------------------------------------------|

G|----------------------------------------------|
D|-----------------------------------------4h6~-|
A|------------------------4-4-4------4-4h6------| (not 100% sure about end)
E|-2-2-2-—2h4-2-2-2---2h4--------2h4------------|
B|----------------------------------------------|

Chorus
G|---------------------------------------|
D|-------------------------4-4-----------|
A|---------4-4-----2-2-5-5-----5-5-------| X4
E|-2-2-5-5-----5-5-----------------------|
B|---------------------------------------|

Verse
G|-------------------------------------------|
D|-------------------------------------------|
A|------------------------4-4-4------4-4-4---| X4
E|-2-2-2-—2h4-2-2-2---2h4--------2h4---------|
B|-------------------------------------------|

Chorus
G|---------------------------------------|
D|-------------------------4-4-----------|
A|---------4-4-----2-2-5-5-----5-5-------| X4
E|-2-2-5-5-----5-5-----------------------|
B|---------------------------------------|

Outro
G|-------------------------------------------|
D|-------------------------------------------|
A|------------------------4-4-4------4-4-4---| Play over as song dies
E|-2-2-2-—2h4-2-2-2---2h4--------2h4---------|
B|-------------------------------------------|


| /  slide up
| \  slide down
| h  hammer-on
| p  pull-off
| ~  vibrato
| +  harmonic
| x  Mute note


I tabbed this all by ear so chances are it’s a bit wrong but you’ll probably be able to 
it out as you’re playing (with your fingers not a pick if you are a real bassist) so 
free to correct me.
Suggest correction
Give kudos to tab author, rate the tab!
1 2 3 4 5
comments
print report bad tab
guest
You may want to rate the tab now too:
select rating
Please do not post tabs as comments. Select "correction" instead!