Oops, an error
Loading. Please wait.

Guilty Conscience Bass Tab

version 1
version 1

Whole song

Interactive

6,103 views 12 this week
1 commentread comment
1 2 3 4 5
excellent!
x 7
add to favorites
launch autoscroll
font size
0
reset
guitar tuner
Tab Pro tools
  • play this tab
  • loop segment
  • change instrument
  • show fretboard
  • metronome
Autoscroll
slow
fast
+/-
esc
set tempo
stop
Contributor
tab by Phil c.

drop the E and the A two and a half steps to B and E
or .. use a 5 string

Verse
G|---------------------------------------------------
D|---------------------------------------------------
E|--55-3-55-3-55-3-5-3-2-1------------------1-3-4-5--
B|-------------------------44-1-44-1-44-1-4----------
comments
print report bad tab
1 comment total.
0 reply
Lordjakobus wrote on January 19 2015, 06:39 pm

G|---------------------------------------------------
D|---------------------------------------------------
E|--55-3-55-3-55-3-5-3-1-0------------------1-3-4-5--
B|-------------------------44-1-44-1-44-1-4----------

I want to post or [tab]
guest
You may want to rate the tab now too:
select rating
Please do not post tabs as comments. Select "correction" instead!