Oops, an error
Loading. Please wait.

Hailies Song Tab

version 1
version 1
7,466 views 12 this week
2 commentsread comments
1 2 3 4 5
accurate
x 9
add to favorites
launch autoscroll
font size
0
reset
how to read this tab
guitar tuner
Autoscroll
slow
fast
+/-
esc
set tempo
stop
Help us to improve Ultimate-Guitar.com Take our survey!
×
Author
"Haile's Song"
from "The Eminem Show"
Tabbed by: Mistah Franco
It's kinda weird to hear him sing, but it's a cool ass song.

Intro:
1st time
----------------------------------------
----------------------------------------
-------7----7------------7h9-7-5-7-5-7-4
-7-9-10-10-9-10-9-9-9/10----------------
----------------------------------------
----------------------------------------
2nd time
------------------------------------------
------------------------------------------
-------7----7------------7h9-7-5-7-5-7-7/9
-7-9-10-10-9-10-9-9-9/10------------------
------------------------------------------
------------------------------------------
Chorus is the same as the intro, but on the 2nd time
(when he goes for the high pitched "..But then she comes back to me....eeee....eee") add 

----------------------------
----------------------------
-7h9-7-5-7-5-7-7/9-9/12-12/14
----------------------------
----------------------------
----------------------------
Well Dat's oll I have.  
Suggest correction
What's this?
You can suggest a correction to this tab. Community and Mods will review your correction and vote to approve or reject it.
comments
print report bad tab
2 comments total.
0 reply
yo cure 0 wrote on November 30 2002, 12:00 am

haliessong off of eminem show realy goes like this

Intro
e--------------------------------------
a--------------------------------------
d7-9-10---10-9--10-9-9-9-10------------
g-------7------7------------9-7-5-7-5-4
b--------------------------------------



but the second time it goes
e---------------------------------------
a---------------------------------------
d-7-9-10--10-9---10-9-9-9-10------------
g--------7------7------------9-7-5-7-5-9
b---------------------------------------
e---------------------------------------


the second part of the chorus goes

e--------------------
a--------------------
d--------------------
g-9-7-5-7-5-7-9-12-14
b--------------------
e--------------------

0 reply
nflfan04 110 wrote on October 25 2006, 10:51 pm

thats exactly what he has, you put it upside down.

guest
You may want to rate the tab now too:
select rating
Please do not post tabs as comments. Select "correction" instead!