Oops, an error
Loading. Please wait.

Hellbound Tab

version 2
version 2

Whole song

203 views 1 this week
no commentswrite comment
1 2 3 4 5
3 more votes to show rating
add to favorites
launch autoscroll
font size
0
reset
how to read this tab
guitar tuner
Autoscroll
slow
fast
+/-
esc
set tempo
stop
Help us to improve Ultimate-Guitar.com Take our survey!
×
Author
Difficulty
novice
My first tab :)

Here's the melody that keeps looping, pretty sweet to play.

[Verses]

e | --2-0---------------------------------------- |
B | 0------3-2-0----0-2--3-2-0----0-2--3-2-0----0 |
G | --------------2-------------2-------------2-- |
D | --------------------------------------------- |
A | --------------------------------------------- |
E | --------------------------------------------- |

[Chorus]

e | 0-7-5--3-2-0----0-2--3-2-0----0-2--3-2-0--7-5-3-2-- |
B | --------------3-------------3---------------------3 |
G | --------------------------------------------------- |
D | --------------------------------------------------- |
A | --------------------------------------------------- |
E | --------------------------------------------------- |

Keep playing it over and over again.. Have fun!

Facebook.com/MalikKillzIt
Suggest correction
Give kudos to tab author, rate the tab!
1 2 3 4 5
comments
print report bad tab
guest
You may want to rate the tab now too:
select rating
Wanna post a correction for this tab? Suggest correction