Oops, an error
Loading. Please wait.

Im Back Bass

version 1
version 1

Whole song

Interactive

by Eminem
2,474 views 12 this week
4 commentsread comments
1 2 3 4 5
2 more votes to show rating
add to favorites
launch autoscroll
font size
0
reset
guitar tuner
×
Best way to learn
"Im Back"
Autoscroll
slow
fast
+/-
esc
set tempo
stop
Artist: Eminem
Title: I'm Back
Album: Marshall Mathers LP
Tabbed by: bradley
E-mail: bradley@mail.lv


  Standart tuning
G|---------------|------------| 
D|--------2-0----|------------|  
A|----2-------2--|------------| 
E|--2---2--------|--2-3--3-2--| 

Simple isn't it!

I'm Back
I'm Gone
SeeYaa
Suggest correction
Give kudos to tab author, rate the tab!
1 2 3 4 5
comments
print report bad tab
4 comments total. Showing first comments.
0 reply
bigbassist13 30 Jul 09, 2002 08:00 PM

G |------------------|---------|
D |-----------0-2-0--|---------|
A |-----2---2-------2|---------|
E |---2---2----------|-2-3--3-2|

0 reply
duffboyyuk 80 May 01, 2007 07:52 AM

G |-----------------|---------|
D |----------/4-0---|---------|
A |-----2---------2-|---------|
E |---2---2---------|-2-3--3-2|

0 reply
duffboyyuk 80 May 01, 2007 07:55 AM

Actually...
G |-----------------|---------|
D |----------/4-0---|---------|
A |-----2---------2-|---------|
E |---2---2---------|-2-3--3-0|

guest
You may want to rate the tab now too:
select rating
Wanna post a correction for this tab? Suggest correction