Oops, an error
Loading. Please wait.

Im Back Tab

version 1
version 1

Whole song

Interactive

5,354 views 30 this week
1 commentread comment
1 2 3 4 5
accurate
x 6
add to favorites
launch autoscroll
font size
0
reset
how to read this tab
guitar tuner
Autoscroll
slow
fast
+/-
esc
set tempo
stop
Help us to improve Ultimate-Guitar.com Take our survey!
×
Author
Thats why they call me Slim Shady, I'm Back, I'm Back!

e---------------------------------------------------------------|
B---------------------------------------------------------------|
G---------------------------------------------------------------|
D------------4--------------------------------------------------|
A--------2------5--2--------------------------------------------|
E--2--2---------------2--3--2--0--------------------------------|

or

e---------------------------------------------------------------|
B---------------------------------------------------------------|
G---------------------------------------------------------------|
D-------------4b-------4--5--4--2-------------------------------|
A----------2-----5--2--4--5--4--2-------------------------------|
E--1-1--2--------------2--3--2--0-------------------------------|

thnx!
Suggest correction
comments
print report bad tab
1 comment total.
+2 reply
TheRick 10 wrote on November 29 2006, 09:22 pm

e---------------------------------------------------------------|
B---------------------------------------------------------------|
G---------------------------------------------------------------|
D------------4--------------------------------------------------|
A-----2---------5--2--------------------------------------------|
E--2-----2------------2--3--2--0--------------------------------|

Slight change, but sounds perfect. Nice job though.

guest
You may want to rate the tab now too:
select rating
Wanna post a correction for this tab? Suggest correction