Oops, an error
Loading. Please wait.

Im Shady Bass Tab

1,035 views 1 this week
1 commentread comment
1 2 3 4 5
please rate
add to favorites
launch autoscroll
font size
0
reset
guitar tuner
Autoscroll
slow
fast
+/-
esc
set tempo
stop
Help us to improve Ultimate-Guitar.com Take our survey!
×
"I'm Shady" By Eminem From The Slim Shady LP

Tabbed by The Wolf(vampear@nt.net)

I'm pretty sure that this is 100% correct, if not, email me with the corrections.


Follow along with the beat

Intro
?????
^=Bend

G|-----------------------------------|
D|-----------------------------------|
A|--------------6^-------------------|
E|2-2-2-2-2-2-2----------------------|

Rest Of The Song
????????????????
G|-----------------------------------|
D|-----------------------------------|
A|----------2-2-2-4-5--6^------------|
E|2-2-2-4-5--------------------------|

That's It!
Suggest correction
Give kudos to tab author, rate the tab!
1 2 3 4 5
comments
print report bad tab
1 comment total.
0 reply
nmastah3 327 wrote on January 24 2011, 09:53 pm

hey man..ur tab is almost 100%.
the 6 on the a string should actually be a 7 with a down slide. thats all that was wrong. hopefully u get this and fix it.
G|-----------------------------------|
D|-----------------------------------|
A|--------------7\\\-----------------|
E|2-2-2-2-2-2-2----------------------|

G|-----------------------------------|
D|-----------------------------------|
A|----------2-2-2-4-5--7\\\----------|
E|2-2-2-4-5--------------------------|

nmastah3

guest
You may want to rate the tab now too:
select rating
Wanna post a correction for this tab? Suggest correction