Oops, an error
Loading. Please wait.

Kill You Tab

version 2
version 2

Whole song

1,221 views 3 this week
1 commentread comment
1 2 3 4 5
please rate
add to favorites
launch autoscroll
font size
0
reset
how to read this tab
guitar tuner
Autoscroll
slow
fast
+/-
esc
set tempo
stop
Help us to improve Ultimate-Guitar.com Take our survey!
×
Author
-------------------------------------------------------------------------------
                             KILL YOU - Eminem
-------------------------------------------------------------------------------

Tabbed by:Jetfuel495

I tabbed out the intro in Guitar Pro and decided to post it.
The other tab was pretty good. Almost perfect, in fact, but not quite.
I slowed down the song to listen to each individual note so I'm sure
this is 100% correct.


     
E||------------------------------------|----------------------------|
B||--12-----------------------------12-|--11------------------------|
G||-----11-----------------------------|-----11---------------------|
D||--------12--------------12----12----|--------11------------------|
A||-----------14--------------14-------|-----------13---------------|
E||------------------------------------|----------------------------|



------------------------------------|----------------------------||
--11-----------------------------11-|--12------------------------||
-----11-----------------------------|-----11---------------------||
--------11--------------11----11----|--------12------------------||
-----------13--------------13-------|-----------14---------------||
------------------------------------|----------------------------||


It's just that, for the most part. Repeats through the whole song.

Tablature Legend
----------------
L - tied note
x - dead note
g - grace note
(n) - ghost note
> - accentuded note
NH - natural harmonic
AH - artificial harmonic
TH - tapped harmonic
SH - semi harmonic
PH - pitch harmonic
h - hammer on
p - pull off
b - bend
br - bendRelease
pb - preBend
pbr - preBendRelease
brb - bendReleaseBend
\n/ - tremolo bar dip
\n - tremolo bar dive
-/n - tremolo bar Release up
/n\ - tremolo bar inverted dip
/n - tremolo bar return
-\n - tremolo bar Release down
S - shift slide
s - legato slide
/ -  slide into from below or out of upwards
\ -  slide into from above or out of downwards
~ - vibrato
W - wide vibrato
tr - trill
TP - tremolo picking
T - tapping
S - slap
P - pop
< - fade in
^ - brush up
v - brush down
Suggest correction
Give kudos to tab author, rate the tab!
1 2 3 4 5
comments
print report bad tab
1 comment total.
-1 reply
DarthChop 30 wrote on August 11 2012, 03:17 am

Sorry to dash your 100%, but the picking's not right.

e|-7-------------7-----7-6--------|
B|---7-------------7-------7------|
G|-----7-------7-----7-------6----|
D|-------9---9-----------------8--|

Just goes back and forth over the two chords.

guest
You may want to rate the tab now too:
select rating
Wanna post a correction for this tab? Suggest correction