Oops, an error
Loading. Please wait.

Lose Yourself Bass

version 1
version 1

Whole song

Interactive

by Eminem
26,032 views 36 this week
5 commentsread comments
1 2 3 4 5
x 20
add to favorites
launch autoscroll
font size
0
reset
guitar tuner
backing track
0:00
0:00
×
Best way to learn
"Lose Yourself"
Autoscroll
slow
fast
+/-
esc
set tempo
stop
Author
G|2-2-2-2-2-2-2-0-3-3-3-3-3-3-3-3| 
D|0-0-0-0-0-0-0-0-0-0-0-0-0-0-0-0|
A|-------------------------------|
E|-------------------------------|

G|2-2-2-2-2-2-2-0-3-3-3-3-3-3-3-3|
D|0-0-0-0-0-0-0-0-0-0-0-0-0-0-0-0|
A|-------------------------------|
E|-------------------------------|

through the whole song
Suggest correction
comments
print report bad tab
5 comments total. Showing first comments.
0 reply
Vlad 31 Dec 31, 2005 05:17 AM

sounds great

0 reply
ihaveafakeleg 51 Feb 06, 2006 03:32 PM

nicely done my friend

+4 reply
robotfrom94 314 Oct 01, 2013 05:17 AM

This is correct as the melody, but the actual bass just plays a low D (therefore tuning is drop D) the whole way through

guest
You may want to rate the tab now too:
select rating
Wanna post a correction for this tab? Suggest correction