Oops, an error
Loading. Please wait.
We have an official Lose Yourself tab made by UG professional guitarists. Check out the tab »
×
by Eminem
229,210 views 246 this week
42 commentsread comments
1 2 3 4 5
x 144
add to favorites
launch autoscroll
font size
0
reset
how to read this tab
guitar tuner
backing track
0:00
0:00
Autoscroll
slow
fast
+/-
esc
set tempo
stop
e|-------------------------------------------------------------------------------------------------------|
B|-------------------------------------------------------------------------------------------------------|
G|-2-2-2-2-2-2-2-2---2---0---3-3-3-3-3-3-3-3---3---0---2-2-2-2-2-2-2-2---2---0---3-3-3-3-3-3-3-3---3---0-|
D|-0-0-0-0-0-0-0-0---0---0---0-0-0-0-0-0-0-0---0---0---0-0-0-0-0-0-0-0---0---0---0-0-0-0-0-0-0-0---0---0-|
A|-------------------------------------------------------------------------------------------------------|
E|-------------------------------------------------------------------------------------------------------|

Palm Mute this after each time you play the chord and itll sound like
the actual song
Suggest correction
comments
print report bad tab
42 comments total. Showing first comments.
0 reply
Aznsuperman 10 Nov 07, 2002 07:00 PM

something's missing, i'm not sure..but when it first starts, i dont think it hits the open strings..i think it goes to 3 before it does the open string
0
not sure..sounds good though.

0 reply
incufan_15 30 Nov 15, 2002 07:00 PM

E------------------------------------
B------------------------------------
G------------------------------------
D--7--(play 8 times)--8--(play-----5-
A--5------------------5--7 times)--0-
E------------------------------------

+1 reply
incufan_15 30 Nov 15, 2002 07:00 PM

sorry for the last post, here is a 100% correct tab...

E--------- E--------- E------- B--------- B--------- B-------
G--------- G--------- G------- D--7------ X7 D--8------ X8 D--5----
A--5------ A--5------ A--0----
E--------- E--------- E-------

guest
Wanna post a correction for this tab? Suggest correction