Oops, an error
Loading. Please wait.

Lose Yourself Tab

version 1
version 1

Intro

Interactive

Video

213,871 views 78 this week
40 commentsread comments
1 2 3 4 5
accurate
x 82
add to favorites
launch autoscroll
font size
0
reset
how to read this tab
guitar tuner
Tab Pro tools
  • play this tab
  • loop segment
  • change instrument
  • show fretboard
  • metronome
×
Best way to learn
"Lose Yourself"
Autoscroll
slow
fast
+/-
esc
set tempo
stop
E--------------------------------------------------------------------
B--------------------------------------------------------------------
G--22222222-2-0-33333333-3-0-22222222-2-0-33333333-3-0---------------
D--00000000-0-0-00000000-0-0-00000000-0-0-00000000-0-0---------------
A--------------------------------------------------------------------
E--------------------------------------------------------------------

Palm Mute this after each time you play the chord and itll sound like
the actual song
comments
print report bad tab
40 comments total. Showing first comments.
0 reply
Aznsuperman wrote on November 8 2002, 12:00 am

something's missing, i'm not sure..but when it first starts, i dont think it hits the open strings..i think it goes to 3 before it does the open string
0
not sure..sounds good though.

+1 reply
incufan_15 wrote on November 16 2002, 12:00 am

E------------------------------------
B------------------------------------
G------------------------------------
D--7--(play 8 times)--8--(play-----5-
A--5------------------5--7 times)--0-
E------------------------------------

0 reply
incufan_15 wrote on November 16 2002, 12:00 am

sorry for the last post, here is a 100% correct tab...

E--------- E--------- E------- B--------- B--------- B-------
G--------- G--------- G------- D--7------ X7 D--8------ X8 D--5----
A--5------ A--5------ A--0----
E--------- E--------- E-------

I want to post or [tab]
guest
You may want to rate the tab now too:
select rating
Please do not post tabs as comments. Select "correction" instead!