Oops, an error
Loading. Please wait.

Lose Yourself Tab

version 3
version 3

Interactive

Video

141,553 views 153 this week
11 commentsread comments
1 2 3 4 5
excellent!
x 53
add to favorites
launch autoscroll
font size
0
reset
how to read this tab
guitar tuner
Autoscroll
slow
fast
+/-
esc
set tempo
stop
Help us to improve Ultimate-Guitar.com Take our survey!
×
Author
Difficulty
intermediate
Hey, This is my first tab. I heard the riff to this song and though it was quite nice,
of the song not so much but i looked for tabs and couldn't find any that were correct.
is my interepretation and i'm pretty sure its 100% correct. I've uploaded a vid of me 
it on youtube, so check that out for the rhythm and stuff.

http://youtube.com/watch?v=FTn4pihRbPI


[Piano Bit]

E--5------5-------------5-----5-6-8-6-5--|
B----6-------8------8-----6------------8-|
G------7-------9------------7~-----------|   X2
D----------------10----------------------|
A----------------------------------------|
E----------------------------------------|

E-----------------------------------5--|
B--3-----3-1------------------------5--|
G----3-------2----3-2-0~--2-3-2-----6--|
D------5-------3-------------------7---|
A--------------------------------7-----|
E------------------------------5-------|


[Muted Guitar]

E----------------------------------------------------------|
B----------------------------------------------------------|
G-----------------------------------------------Hammer-off-|
D-----------7--------7-----7--8--8-----8--------8--5-------|
A-----5--5--5--5--5--5--5--5--5--5--5--5--5--5--5--5-------|
E----------------------------------------------------------|
Suggest correction
comments
print report bad tab
11 comments total. Showing first comments.
+1 reply
M3TAL4L1FE 10 wrote on January 28 2008, 05:51 pm

I'm pretty sure this is mostly right, most others are pretty off on this site, nice!

+1 reply
Mgkrcks 10 wrote on January 15 2009, 03:50 pm

haha hammer-off...

-2 reply
Mighty-Mayo 20 wrote on February 17 2009, 09:54 pm

hammer off? dnt u mean pull off

guest
You may want to rate the tab now too:
select rating
Please do not post tabs as comments. Select "correction" instead!