Oops, an error
Loading. Please wait.
We have an official Lose Yourself tab made by UG professional guitarists. Check out the tab »
×

Lose Yourself bass

version 3
version 3

Whole song

Interactive

by Eminem
571 views 9 this week
no commentswrite comment
1 2 3 4 5
2 more votes to show rating
add to favorites
×
Save as Personal and add changes to this tab that will be seen only by you. Learn more ›
×
You can save this tab as Personal to edit and correct it or add notes. All changes will be seen only by you. Learn more »
launch autoscroll
font size
0
reset
guitar tuner
backing track
0:00
0:00
edit
Autoscroll
slow
fast
+/-
esc
set tempo
stop
Author
About this tab version
This song is more than just an open D the entire time. Was this info helpful? Yes No
Lose Yourself - Eminem
Dropped D (DADG)
Tabbed By: J. da Silva  

Intro - Rest until 0:54
G|----------------------------------------------|
D|----------------------------------------------|
A|----------------------------------------------|
D|--(x)-0-0----0-0----(x)-0---0-0----0-----0-0--|

G|---------------------------------------|
D|---------------------------------------| x2
A|----------5---------------5------------|
D|--(x)-0-0---0-0-0-0-0-0-0---0-0-0-0-0--|

Verse                                                  
G|--------------------------------------------------------------------------|    
D|--------------------------------------------------------------------------| x2    
A|----------5-------5-------5-------5-----------5-------5-------5---5---5---|  
D|--(x)-0-0---0-0-0---0-0-0---0-0-0---0-(x)-0-0---0-0-0---0-0-0---0---0---0-|    

Chorus
G|-------------------------------------------------------------------|
D|-------------------------------------------------------------------| x2
A|------5-------5-------5-------5------------------------------------|
D|--0-0---0-0-0---0-0-0---0-0-0---0-0-0-0-0-0-0-0-0-0-0-0-0-0-0-0-0--|

Verse                                                   
G|---------------------------------------------------------------------------|    
D|---------------------------------------------------------------------------| x3    
A|----------5-------5-------5-------5-----------5-------5-------5---5---5----|    
D|--(x)-0-0---0-0-0---0-0-0---0-0-0---0-(x)-0-0---0-0-0---0-0-0---0---0---0--|    

Chorus
G|-------------------------------------------------------------------|
D|-------------------------------------------------------------------| x2
A|------5-------5-------5-------5------------------------------------|
D|--0-0---0-0-0---0-0-0---0-0-0---0-0-0-0-0-0-0-0-0-0-0-0-0-0-0-0-0--|

Verse                                                   
G|---------------------------------------------------------------------------|    
D|---------------------------------------------------------------------------|  x6 
A|----------5-------5-------5-------5-----------5-------5-------5---5---5----|     
D|--(x)-0-0---0-0-0---0-0-0---0-0-0---0-(x)-0-0---0-0-0---0-0-0---0---0---0--|    

Outro 
G|-------------------------------------------------------------------|
D|-------------------------------------------------------------------| 
A|------5-------5-------5-------5-------5-------5-------5---5---5----|
D|--0-0---0-0-0---0-0-0---0-0-0---0-0-0---0-0-0---0-0-0---0---0---0--|

G|--------------------------------------------------|
D|--------------------------------------------------| x2
A|--5--5--5--5--5--5--5--5--5--5--5--5--5--5--5--5--|
D|--------------------------------------------------|

G|--------------------------------------------------|
D|--------------------------------------------------| x12 (Fade Out)
A|--------------------------------------------------|
D|--0--0--0--0--0--0--0--0--0--0--0--0--0--0--0--0--|

************************************

| x   Dead note
| g   Grace note
| (n) Ghost note
| h   Hammer-on
| p   Pull-off
| r   Release
| >   Accented note
| t   Tapping
| b   Bend
| br  Bend release
| pb  Pre-bend
| pbr Pre-bend release
| /   Slide up
| \   Slide down
| ~   Vibrato
| s   Slap
| P   Pop
| PM  Palm mute
| TR  Trill
| N   Tremolo

************************************

            
            
Suggest correction
Creating personal tab
Creating personal tab
You can edit any tab online and save it as your Personal.

You can edit, replace or remove any tab part or add personal notes – all changes will be seen only by you.

Personal tabs can be accessed anytime from any device, even offline.
Learn more »
Give kudos to tab author, rate the tab!
1 2 3 4 5
comments
print report bad tab
guest
You may want to rate the tab now too:
select rating
Wanna post a correction for this tab? Suggest correction