Oops, an error
Loading. Please wait.

Lose Yourself Tab

version 4
version 4

Interactive

5,819 views 9 this week
1 commentread comment
1 2 3 4 5
x 5
add to favorites
launch autoscroll
font size
0
reset
how to read this tab
guitar tuner
Autoscroll
slow
fast
+/-
esc
set tempo
stop
Help us to improve Ultimate-Guitar.com Take our survey!
×
Difficulty
advanced
Banjo Tab

(intro)

d--------------------------------------------------------------------------|
b--------------------------------------------------------------------------|
g-2-----2-0-5-0-2---2-4-2-0-2---2-0---5-0-2--4-1---4-2-1-------------------|
d---3-0----2-----3-0---------3-0----2-------0----0-------------------------|

(the rest of the song)

d--------------------------------------------------------------------------|
b--------------------------------------------------------------------------|
g-2-2-2-2-2-2-2-2-3-3-3-3-3-3-3-3-2-2-2-2-2-2-2-2-3-3-3-3-3-3-3-3----------|
d-0-0-0-0-0-0-0-0-0-0-0-0-0-0-0-0-0-0-0-0-0-0-0-0-0-0-0-0-0-0-0-0----------|
Suggest correction
comments
print report bad tab
1 comment total.
0 reply
kie1985.kj 10 Nov 28, 2015 09:34 AM

not much explanation and too simple,
needs the lyrics and mabe some of the chords with it,
tell us what tuning it is in because we need to know that

guest
You may want to rate the tab now too:
select rating
Wanna post a correction for this tab? Suggest correction