Oops, an error
Loading. Please wait.

Marshall Mathers tab

version 3
version 3

Whole song

Interactive

by Eminem
23,736 views 96 this week
6 commentsread comments
1 2 3 4 5
x 32
add to favorites
×
Save as Personal and add changes to this tab that will be seen only by you. Learn more ›
×
You can save this tab as Personal to edit and correct it or add notes. All changes will be seen only by you. Learn more »
launch autoscroll
font size
0
reset
how to read this tab
guitar tuner
edit
Autoscroll
slow
fast
+/-
esc
set tempo
stop
Author
Difficulty
About this tab version
The main riff and the solo part. Was this info helpful? Yes No
e|---------------------------------------------|
B|--------------------1--------0---------------|
G|-----------0------0--------2------------0----|
D|---------4------2--------1------------4------|
A|-------2------0--------2------------2--------|
E|-----0------------------------(2)-0----------|

[Solo]
e|-------------------|---------|--------------------|---------------|
B|-------------------|---------|--------------------|---------------|
G|--------------4\2--|-2-------|--------------4\2---|2/4-4h5-4-2-0--|
D|-------------------|---5\4\2-|--------------------|--------------2|
A|--2/7-9-10\3-------|---------|--2/7-9-10\3--------|---------------|
E|-------------------|---------|--------------------|---------------|


************************************

| (n)  Ghost note
| h    Hammer-on
| /    Slide up
| \    Slide down

************************************

            
            
Suggest correction
Creating personal tab
Creating personal tab
You can edit any tab online and save it as your Personal.

You can edit, replace or remove any tab part or add personal notes – all changes will be seen only by you.

Personal tabs can be accessed anytime from any device, even offline.
Learn more »
comments
print report bad tab
6 comments total. Showing first comments.
0 reply
DazedN'Confused 10 Oct 28, 2003 07:00 PM

E |------------------------------------------|
B |--------------------1--------0------------|
G |-----------0------0--------2---------0----|
D |---------4------2--------1---------4------|
A |-------2------0--------2---------2--------|
E |-----0-------------------------0----------|

0 reply
musicidot 31 May 19, 2007 10:29 PM

hey, i like this guitar riff, even it's in a rap song, but it still sounds cool,

0 reply
GWiZ 330 Jun 19, 2007 08:55 PM

I am not making claims to its quality, just its difficulty. I like it too, and that's why I made the tab. :-)

guest
You may want to rate the tab now too:
select rating
Wanna post a correction for this tab? Suggest correction