Oops, an error
Loading. Please wait.

Mockingbird Tab

version 4
version 4

Whole song

Interactive

by Eminem
19,520 views 27 this week
no commentswrite comment
1 2 3 4 5
x 6
add to favorites
launch autoscroll
font size
0
reset
how to read this tab
guitar tuner
Autoscroll
slow
fast
+/-
esc
set tempo
stop
-------------------------------------------------------------------------------
                             Mockingbird (for classic guitar)
-------------------------------------------------------------------------------
Artist: Eminem
Album: Encore (2004)
Tabbed by: Daniel Fredrikson
Email: bubbelaffe@hotmail.com

Figured this out by just listening to the song, please email me any errors!
Please beware this is my first tab (ever!)


e|--0---3--3--3--/5--3--2--2-----2-----3p2-----------------------------------|
B|--0---------------------------------------5--------------------------------|
G|--0------------------------------------------------0-----------------------|
D|--2----------------5--------4-----4------------2-----2---2-----------------|
A|--2----------------------------------------------2-----2-------------------|
E|--0------------------------------------------0-----------------------------|

e|---------------------------------------------------------------------------|
B|-----0--0-(0)----0--0-(0)-----0-0------------------------------------------|
G|--------------2------------2-------0---------------0-----------------------|
D|--2-----------------------------------4--2-----2-----2---2-----------------|
A|--2-----------0----------------------------------2-----2-------------------|
E|--0------------------------------------------0-----------------------------|

Suggest correction
comments
print report bad tab
guest
You may want to rate the tab now too:
select rating
Wanna post a correction for this tab? Suggest correction