Oops, an error
Loading. Please wait.

My Name Is Bass

version 2
version 2

Whole song

Interactive

by Eminem
11,277 views 30 this week
3 commentsread comments
1 2 3 4 5
x 9
add to favorites
×
Save as Personal and add changes to this tab that will be seen only by you. Learn more ›
launch autoscroll
font size
0
reset
guitar tuner
Autoscroll
slow
fast
+/-
esc
set tempo
stop
My Name Is
by Eminem
Off Of The Slim Shady LP
----------

Normal tuning

x = cut note off

The Whole Damn Song
E-1--x--3--x--6--x--4--x--

Paul Hagen
hagenp@mindspring.com
www.angelfire.com/al/Hagen


That is almost correct.  Here is what you need to do:


G------------------------------
D------------------------------  repeat through whole damn song (of course)
A------------------------------
E---0h1--0h3--0h6--0h4---------
Suggest correction
comments
print report bad tab
3 comments total.
0 reply
RyanZilla 10 Dec 08, 2014 12:46 PM, edited at 05:50 pm

G--------------------------------------------------
D--------3---------6---------8----------6---------
A---------------------------------------------------
E---0h1--1--0h4--4--0h6--6--0h4--4-------
I like to play it like this, not sure how correct it is.
It also sounds good in slap

0 reply
rlhoyt 132 Jul 01, 2015 11:03 AM

Its a slide progression from the previous note.

G--------------------------------------
D--------------------------------------
A--------------------------------------
E---0h1--1/3----3/6----6\4-------------

guest
You may want to rate the tab now too:
select rating
Wanna post a correction for this tab? Suggest correction