Oops, an error
Loading. Please wait.

Rap God Tab

version 1
version 1

Whole song

Interactive

by Eminem
44,993 views 93 this week
10 commentsread comments
1 2 3 4 5
x 30
add to favorites
launch autoscroll
font size
0
reset
how to read this tab
guitar tuner
×
Best way to learn
"Rap God"
Autoscroll
slow
fast
+/-
esc
set tempo
stop
Difficulty
Capo
novice
3rd fret
[Main Riff]

basically, strum theese three strings

e|---------------------------------------------------------------------------|
B|---------------------------------------------------------------------------|
G|---------------------------------------------------------------------------|  (repeat as needed)
D|----2---2---2---2---2---2--2---2-------------------------------------------|
A|----2---2---2---2---2---2--2---2-------------------------------------------|
E|----0---0---0---3---0---0--0---3-------------------------------------------|


occasionally, when u feel like it, add in this

e|---------------------------------------------------------------------------|
B|---------------------------------------------------------------------------|
G|---------------------------------------------------------------------------|
D|----2---2---2---2-----2-----2--2--2----------------------------------------|
A|----2---2---2---2-----2-----2--2--2----------------------------------------|
E|----0---0---0---3p0---3p0---0--0--0----------------------------------------|


[Solo]

e|---0-0-0-3p0--3p0--0-0-0---------------------------------------------------|
B|---------------------------------------------------------------------------|
G|---------------------------------------------------------------------------|
D|---------------------------------------------------------------------------|
A|---------------------------------------------------------------------------|
E|---------------------------------------------------------------------------|



************************************

| p  Pull-off

************************************
Suggest correction
comments
print report bad tab
10 comments total. Showing first comments.
+2 reply
Ilana7 10 Jan 19, 2014 10:10 PM

terrible......

+2 reply
faigy 83 Jan 25, 2014 05:50 PM

Reeeeeeeaaaaaal bad... dont bother even trying....

0 reply
WladBlank 10 Mar 27, 2014 06:30 AM

It is fine to rap to.
the "small" solo part is crap.

I suggest better to use this one if you're rapping to it.

e|-----------------------------------------------------------------------|
B|------------------------------------------------------------------|
G|-----------------------------------------------------------|
D|----2---X---2---X---3-----------------------------|
A|----2---X---2---X---2-----------------|
E|----0---X---0---X---0---------|

guest
You may want to rate the tab now too:
select rating
Wanna post a correction for this tab? Suggest correction