Oops, an error
Loading. Please wait.

Rap God tab

version 2
version 2

Whole song

Interactive

by Eminem
2,545 views 60 this week
no commentswrite comment
1 2 3 4 5
x 4
add to favorites
×
Save as Personal and add changes to this tab that will be seen only by you. Learn more ›
×
You can save this tab as Personal to edit and correct it or add notes. All changes will be seen only by you. Learn more »
launch autoscroll
font size
0
reset
how to read this tab
guitar tuner
edit
Autoscroll
slow
fast
+/-
esc
set tempo
stop
Author
Difficulty
For this song you need a Digitech Whammy and a Wah pedal.
That, or you can play the Gm chord throughout the whole song like this:

     Gm                          Gm/Bb
e|-----------------------------------|
B|-----------------------------------|
G|---3---3---3---3---3---3---3---3---|
D|---5---5---5---5---5---5---5---5---|
A|---5---5---5---5---5---5---5---5---|
E|---3---3---3---3---3---3---3---6---|

For the main riff you need your Digitech Whammy and set it to 2 octaves up.
You need to time putting your pedal down. For the most correct sound slightly after you play the tone.
I marked where to put you Whammy pedal down with an X.
At some points in the song the main riff  has a little intro(for example at the beginning)that goes like this:


     X   X   X   X   X   X   X   X
e|----------------------------------|
B|----------------------------------|
G|----------------------------------|
D|---5-------------------5----------|
A|-------5-5-5---5-5-5-------5-5-5--|
E|----------------------------------|

The main riff goes like:

     X   X   X   X   X   X   X   X   X   X   X   X   X   X   X   X
e|-------------------------------------------------------------------|
B|-------------------------------------------------------------------|
G|-------------------------------------------------------------------|
D|---5-----------5---5---------------5-----------5---5-----------5---|
A|-------5---5-----------5---5---5-------5---5-----------5---5-------|
E|-------------------------------------------------------------------|

     X   X   X   X   X   X   X   X   X   X   X   X   X   X   X   X
e|-------------------------------------------------------------------|
B|-------------------------------------------------------------------|
G|-------------------------------------------------------------------|
D|---5-----------5---5---------------5---------------5-----------5---|
A|-------5---5-----------5---5---5-------5---5---5-------5---5-------|
E|-------------------------------------------------------------------|


For the bridge parts between 2:00-2:17, 2:24-2:27 And 2:23-3:55, you need your Wah pedal.
Repeat this through the bridge parts and put your wah pedal down on the X marks.
Make sure to let the first three chords ring through and cut off the forth:

     X       X       X     X
e|---10--------------11----10--------|
B|---11------11------11----11--------|
G|---12------12------12----12--------|
D|---12------13------13----12--------|
A|-----------13----------------------|
E|-----------------------------------|


Play this in the bridge between 2:17-2:23. No pedals used in this riff:

e|--------------------------------------|
B|--------------------------------------|
G|---------3---------------3-3-----4----|
D|-------5---------------5--------------|
A|---5---------------5------------------|
E|--------------------------------------|


Listen carefully to the song a few times so you know how to time the riffs and when to mute.
I always find it easier learning the song by listening to it and having a tab as support.

Anyways good luck, it's a fun song to play.


            
            
Suggest correction
Creating personal tab
Creating personal tab
You can edit any tab online and save it as your Personal.

You can edit, replace or remove any tab part or add personal notes – all changes will be seen only by you.

Personal tabs can be accessed anytime from any device, even offline.
Learn more »
comments
print report bad tab
guest
You may want to rate the tab now too:
select rating
Wanna post a correction for this tab? Suggest correction